999
dxfrw 0.6.3
  0
SECTION
  2
HEADER
  9
$ACADVER
  1
AC1021
  9
$DWGCODEPAGE
  3
ANSI_1252
  9
$INSBASE
 10
0
 20
0
 30
0
  9
$EXTMIN
 10
10000000000
 20
10000000000
 30
0
  9
$EXTMAX
 10
-10000000000
 20
-10000000000
 30
0
  9
$LIMMIN
 10
40.50000000000001
 20
23
  9
$LIMMAX
 10
51.50000000000001
 20
31.5
  9
$ORTHOMODE
 70
    0
  9
$REGENMODE
 70
    1
  9
$FILLMODE
 70
    0
  9
$QTEXTMODE
 70
    0
  9
$MIRRTEXT
 70
    0
  9
$LTSCALE
 40
1
  9
$ATTMODE
 70
    1
  9
$TEXTSIZE
 40
0.125
  9
$TRACEWID
 40
1
  9
$TEXTSTYLE
  7
Standard
  9
$CLAYER
  8
0
  9
$CELTYPE
  6
ByLayer
  9
$CECOLOR
 62
  256
  9
$CELTSCALE
 40
1
  9
$DISPSILH
 70
    0
  9
$DIMSCALE
 40
1
  9
$DIMASZ
 40
0.1805
  9
$DIMEXO
 40
0.0625
  9
$DIMDLI
 40
0.38
  9
$DIMRND
 40
0.01
  9
$DIMDLE
 40
0
  9
$DIMEXE
 40
0.18
  9
$DIMTP
 40
0
  9
$DIMTM
 40
0
  9
$DIMTXT
 40
0.18
  9
$DIMCEN
 40
0.09
  9
$DIMTSZ
 40
0
  9
$DIMTOL
 70
    0
  9
$DIMLIM
 70
    0
  9
$DIMTIH
 70
    1
  9
$DIMTOH
 70
    1
  9
$DIMSE1
 70
    0
  9
$DIMSE2
 70
    0
  9
$DIMTAD
 70
    0
  9
$DIMZIN
 70
    0
  9
$DIMBLK
  1

  9
$DIMASO
 70
    1
  9
$DIMSHO
 70
    1
  9
$DIMPOST
  1

  9
$DIMAPOST
  1

  9
$DIMALT
 70
    0
  9
$DIMALTD
 70
    2
  9
$DIMALTF
 40
25.4
  9
$DIMLFAC
 40
1
  9
$DIMTOFL
 70
    0
  9
$DIMTVP
 40
0
  9
$DIMTIX
 70
    0
  9
$DIMSOXD
 70
    0
  9
$DIMSAH
 70
    0
  9
$DIMBLK1
  1

  9
$DIMBLK2
  1

  9
$DIMSTYLE
  2
Standard
  9
$DIMCLRD
 70
    0
  9
$DIMCLRE
 70
    0
  9
$DIMCLRT
 70
    0
  9
$DIMTFAC
 40
1
  9
$DIMGAP
 40
-0.09
  9
$DIMJUST
 70
    0
  9
$DIMSD1
 70
    0
  9
$DIMSD2
 70
    0
  9
$DIMTOLJ
 70
    1
  9
$DIMTZIN
 70
    0
  9
$DIMALTZ
 70
    0
  9
$DIMALTTZ
 70
    0
  9
$DIMUPT
 70
    0
  9
$DIMDEC
 70
    2
  9
$DIMTDEC
 70
    4
  9
$DIMALTU
 70
    2
  9
$DIMALTTD
 70
    2
  9
$DIMTXSTY
  7
standard
  9
$DIMAUNIT
 70
    0
  9
$DIMADEC
 70
    0
  9
$DIMALTRND
 40
0
  9
$DIMAZIN
 70
    0
  9
$DIMDSEP
 70
    0
  9
$DIMATFIT
 70
    3
  9
$DIMFRAC
 70
    0
  9
$DIMLDRBLK
  1

  9
$DIMLUNIT
 70
    2
  9
$DIMLWD
 70
   -2
  9
$DIMLWE
 70
   -2
  9
$DIMTMOVE
 70
    0
  9
$DIMFXL
 40
1
  9
$DIMFXLON
 70
    0
  9
$DIMJOGANG
 40
0.7853981633974483
  9
$DIMTFILL
 70
    0
  9
$DIMTFILLCLR
 70
    0
  9
$DIMARCSYM
 70
    0
  9
$DIMLTYPE
  6

  9
$DIMLTEX1
  6

  9
$DIMLTEX2
  6

  9
$LUNITS
 70
    2
  9
$LUPREC
 70
    2
  9
$SKETCHINC
 40
1
  9
$FILLETRAD
 40
0.125
  9
$AUNITS
 70
    0
  9
$AUPREC
 70
    2
  9
$MENU
  1
.
  9
$ELEVATION
 40
0
  9
$PELEVATION
 40
0
  9
$THICKNESS
 40
0
  9
$LIMCHECK
 70
    0
  9
$CHAMFERA
 40
0.5
  9
$CHAMFERB
 40
0.5
  9
$CHAMFERC
 40
1
  9
$CHAMFERD
 40
0
  9
$SKPOLY
 70
    0
  9
$USRTIMER
 70
    1
  9
$ANGBASE
 50
0
  9
$ANGDIR
 70
    0
  9
$PDMODE
 70
    0
  9
$PDSIZE
 40
0
  9
$PLINEWID
 40
0
  9
$SPLFRAME
 70
    0
  9
$SPLINETYPE
 70
    6
  9
$SPLINESEGS
 70
   20
  9
$HANDSEED
  5
20000
  9
$SURFTAB1
 70
    6
  9
$SURFTAB2
 70
    6
  9
$SURFTYPE
 70
    6
  9
$SURFU
 70
    6
  9
$SURFV
 70
    6
  9
$UCSBASE
  2

  9
$UCSNAME
  2

  9
$UCSORG
 10
0
 20
0
 30
0
  9
$UCSXDIR
 10
1
 20
0
 30
0
  9
$UCSYDIR
 10
0
 20
1
 30
0
  9
$UCSORTHOREF
  2

  9
$UCSORTHOVIEW
 70
    0
  9
$UCSORGTOP
 10
0
 20
0
 30
0
  9
$UCSORGBOTTOM
 10
0
 20
0
 30
0
  9
$UCSORGLEFT
 10
0
 20
0
 30
0
  9
$UCSORGRIGHT
 10
0
 20
0
 30
0
  9
$UCSORGFRONT
 10
0
 20
0
 30
0
  9
$UCSORGBACK
 10
0
 20
0
 30
0
  9
$PUCSBASE
  2

  9
$PUCSNAME
  2

  9
$PUCSORG
 10
0
 20
0
 30
0
  9
$PUCSXDIR
 10
1
 20
0
 30
0
  9
$PUCSYDIR
 10
0
 20
1
 30
0
  9
$PUCSORTHOREF
  2

  9
$PUCSORTHOVIEW
 70
    0
  9
$PUCSORGTOP
 10
0
 20
0
 30
0
  9
$PUCSORGBOTTOM
 10
0
 20
0
 30
0
  9
$PUCSORGLEFT
 10
0
 20
0
 30
0
  9
$PUCSORGRIGHT
 10
0
 20
0
 30
0
  9
$PUCSORGFRONT
 10
0
 20
0
 30
0
  9
$PUCSORGBACK
 10
0
 20
0
 30
0
  9
$USERI1
 70
    0
  9
$USERI2
 70
    0
  9
$USERI3
 70
    0
  9
$USERI4
 70
    0
  9
$USERI5
 70
    0
  9
$USERR1
 40
0
  9
$USERR2
 40
0
  9
$USERR3
 40
0
  9
$USERR4
 40
0
  9
$USERR5
 40
0
  9
$WORLDVIEW
 70
    1
  9
$SHADEDGE
 70
    3
  9
$SHADEDIF
 70
   70
  9
$TILEMODE
 70
    1
  9
$MAXACTVP
 70
   64
  9
$PINSBASE
 10
-23.92143819960943
 20
-0.04658781033231918
 30
0
  9
$PLIMCHECK
 70
    0
  9
$PEXTMIN
 10
1e+20
 20
1e+20
 30
1e+20
  9
$PEXTMAX
 10
-1e+20
 20
-1e+20
 30
-1e+20
  9
$GRIDMODE
 70
    0
  9
$SNAPSTYLE
 70
    0
  9
$GRIDUNIT
 10
0
 20
0
  9
$PLIMMIN
 10
0
 20
0
  9
$PLIMMAX
 10
47.99212598425197
 20
35.98425196850394
  9
$UNITMODE
 70
    0
  9
$VISRETAIN
 70
    1
  9
$PLINEGEN
 70
    0
  9
$PSLTSCALE
 70
    1
  9
$TREEDEPTH
 70
 3020
  9
$CMLSTYLE
  2
Standard
  9
$CMLJUST
 70
    0
  9
$CMLSCALE
 40
1
  9
$PROXYGRAPHICS
 70
    0
  9
$MEASUREMENT
 70
    0
  9
$CELWEIGHT
370
   -1
  9
$ENDCAPS
280
    0
  9
$JOINSTYLE
280
    0
  9
$LWDISPLAY
290
    0
  9
$INSUNITS
 70
    1
  9
$HYPERLINKBASE
  1

  9
$STYLESHEET
  1

  9
$XEDIT
290
    1
  9
$CEPSNTYPE
380
    0
  9
$PSTYLEMODE
290
    1
  9
$EXTNAMES
290
    1
  9
$PSVPSCALE
 40
1
  9
$OLESTARTUP
290
    0
  9
$SORTENTS
280
  127
  9
$INDEXCTL
280
    0
  9
$HIDETEXT
280
    1
  9
$XCLIPFRAME
290
    0
  9
$HALOGAP
280
    0
  9
$OBSCOLOR
 70
  257
  9
$OBSLTYPE
280
    0
  9
$INTERSECTIONDISPLAY
280
    0
  9
$INTERSECTIONCOLOR
 70
  257
  9
$DIMASSOC
280
    2
  9
$PROJECTNAME
  1

  9
$CAMERADISPLAY
290
    0
  9
$LENSLENGTH
 40
50
  9
$CAMERAHEIGHT
 40
0
  9
$STEPSPERSEC
 40
2
  9
$STEPSIZE
 40
6
  9
$3DDWFPREC
 40
2
  9
$PSOLWIDTH
 40
0.25
  9
$PSOLHEIGHT
 40
4
  9
$LOFTANG1
 40
1.570796326794897
  9
$LOFTANG2
 40
1.570796326794897
  9
$LOFTMAG1
 40
0
  9
$LOFTMAG2
 40
0
  9
$LOFTPARAM
 70
    7
  9
$LOFTNORMALS
280
    1
  9
$LATITUDE
 40
37.795
  9
$LONGITUDE
 40
-122.394
  9
$NORTHDIRECTION
 40
0
  9
$TIMEZONE
 70
-8000
  9
$LIGHTGLYPHDISPLAY
280
    1
  9
$TILEMODELIGHTSYNCH
280
    1
  9
$SOLIDHIST
280
    1
  9
$SHOWHIST
280
    1
  9
$DWFFRAME
280
    2
  9
$DGNFRAME
280
    2
  9
$REALWORLDSCALE
290
    1
  9
$INTERFERECOLOR
 62
  256
  9
$CSHADOW
280
    0
  9
$SHADOWPLANELOCATION
 40
0
  0
ENDSEC
  0
SECTION
  2
CLASSES
  0
ENDSEC
  0
SECTION
  2
TABLES
  0
TABLE
  2
VPORT
  5
8
330
0
100
AcDbSymbolTable
 70
    1
  0
VPORT
  5
31
330
2
100
AcDbSymbolTableRecord
100
AcDbViewportTableRecord
  2
*ACTIVE
 70
    0
 10
0
 20
0
 11
1
 21
1
 12
19.71639009139285
 22
9.161450433444196
 13
0
 23
0
 14
10
 24
10
 15
10
 25
10
 16
0
 26
0
 36
1
 17
0
 27
0
 37
0
 40
23.80791164419317
 41
1.623910336239103
 42
50
 43
0
 44
0
 50
0
 51
0
 71
    0
 72
  100
 73
    1
 74
    3
 75
    0
 76
    0
 77
    0
 78
    0
281
    0
 65
    1
110
0
120
0
130
0
111
1
121
0
131
0
112
0
122
1
132
0
 79
    0
146
0
348
10020
 60
    7
 61
    5
292
1
282
    1
141
0
142
0
 63
  250
421
3358443
  0
ENDTAB
  0
TABLE
  2
LTYPE
  5
5
330
0
100
AcDbSymbolTable
 70
    4
  0
LTYPE
  5
14
330
5
100
AcDbSymbolTableRecord
100
AcDbLinetypeTableRecord
  2
ByBlock
 70
    0
  3

 72
   65
 73
    0
 40
0
  0
LTYPE
  5
15
330
5
100
AcDbSymbolTableRecord
100
AcDbLinetypeTableRecord
  2
ByLayer
 70
    0
  3

 72
   65
 73
    0
 40
0
  0
LTYPE
  5
16
330
5
100
AcDbSymbolTableRecord
100
AcDbLinetypeTableRecord
  2
Continuous
 70
    0
  3
Solid line
 72
   65
 73
    0
 40
0
  0
LTYPE
  5
32
330
5
100
AcDbSymbolTableRecord
100
AcDbLinetypeTableRecord
  2
DOT
 70
    0
  3
Dot . . . . . . . . . . . . . . . . . . . . . .
 72
   65
 73
    2
 40
6.35
 49
0
 74
    0
 49
-6.35
 74
    0
  0
LTYPE
  5
33
330
5
100
AcDbSymbolTableRecord
100
AcDbLinetypeTableRecord
  2
DOTTINY
 70
    0
  3
Dot (.15x) .....................................
 72
   65
 73
    2
 40
0.9525
 49
0
 74
    0
 49
-0.9525
 74
    0
  0
LTYPE
  5
34
330
5
100
AcDbSymbolTableRecord
100
AcDbLinetypeTableRecord
  2
DOT2
 70
    0
  3
Dot (.5x) .....................................
 72
   65
 73
    2
 40
3.175
 49
0
 74
    0
 49
-3.175
 74
    0
  0
LTYPE
  5
35
330
5
100
AcDbSymbolTableRecord
100
AcDbLinetypeTableRecord
  2
DOTX2
 70
    0
  3
Dot (2x) .  .  .  .  .  .  .  .  .  .  .  .  .
 72
   65
 73
    2
 40
12.7
 49
0
 74
    0
 49
-12.7
 74
    0
  0
LTYPE
  5
36
330
5
100
AcDbSymbolTableRecord
100
AcDbLinetypeTableRecord
  2
DASHED
 70
    0
  3
Dashed _ _ _ _ _ _ _ _ _ _ _ _ _ _ _ _ _
 72
   65
 73
    2
 40
19.05
 49
12.7
 74
    0
 49
-6.35
 74
    0
  0
LTYPE
  5
37
330
5
100
AcDbSymbolTableRecord
100
AcDbLinetypeTableRecord
  2
DASHEDTINY
 70
    0
  3
Dashed (.15x) _ _ _ _ _ _ _ _ _ _ _ _ _ _ _ _ _
 72
   65
 73
    2
 40
2.8575
 49
1.905
 74
    0
 49
-0.9525
 74
    0
  0
LTYPE
  5
38
330
5
100
AcDbSymbolTableRecord
100
AcDbLinetypeTableRecord
  2
DASHED2
 70
    0
  3
Dashed (.5x) _ _ _ _ _ _ _ _ _ _ _ _ _ _ _ _ _
 72
   65
 73
    2
 40
9.524999999999999
 49
6.35
 74
    0
 49
-3.175
 74
    0
  0
LTYPE
  5
39
330
5
100
AcDbSymbolTableRecord
100
AcDbLinetypeTableRecord
  2
DASHEDX2
 70
    0
  3
Dashed (2x) ____  ____  ____  ____  ____  ___
 72
   65
 73
    2
 40
38.09999999999999
 49
25.4
 74
    0
 49
-12.7
 74
    0
  0
LTYPE
  5
3A
330
5
100
AcDbSymbolTableRecord
100
AcDbLinetypeTableRecord
  2
DASHDOT
 70
    0
  3
Dash dot __ . __ . __ . __ . __ . __ . __ . __
 72
   65
 73
    4
 40
25.4
 49
12.7
 74
    0
 49
-6.35
 74
    0
 49
0
 74
    0
 49
-6.35
 74
    0
  0
LTYPE
  5
3B
330
5
100
AcDbSymbolTableRecord
100
AcDbLinetypeTableRecord
  2
DASHDOTTINY
 70
    0
  3
Dash dot (.15x) _._._._._._._._._._._._._._._.
 72
   65
 73
    4
 40
3.81
 49
1.905
 74
    0
 49
-0.9525
 74
    0
 49
0
 74
    0
 49
-0.9525
 74
    0
  0
LTYPE
  5
3C
330
5
100
AcDbSymbolTableRecord
100
AcDbLinetypeTableRecord
  2
DASHDOT2
 70
    0
  3
Dash dot (.5x) _._._._._._._._._._._._._._._.
 72
   65
 73
    4
 40
12.7
 49
6.35
 74
    0
 49
-3.175
 74
    0
 49
0
 74
    0
 49
-3.175
 74
    0
  0
LTYPE
  5
3D
330
5
100
AcDbSymbolTableRecord
100
AcDbLinetypeTableRecord
  2
DASHDOTX2
 70
    0
  3
Dash dot (2x) ____  .  ____  .  ____  .  ___
 72
   65
 73
    4
 40
50.8
 49
25.4
 74
    0
 49
-12.7
 74
    0
 49
0
 74
    0
 49
-12.7
 74
    0
  0
LTYPE
  5
3E
330
5
100
AcDbSymbolTableRecord
100
AcDbLinetypeTableRecord
  2
DIVIDE
 70
    0
  3
Divide ____ . . ____ . . ____ . . ____ . . ____
 72
   65
 73
    6
 40
31.75
 49
12.7
 74
    0
 49
-6.35
 74
    0
 49
0
 74
    0
 49
-6.35
 74
    0
 49
0
 74
    0
 49
-6.35
 74
    0
  0
LTYPE
  5
3F
330
5
100
AcDbSymbolTableRecord
100
AcDbLinetypeTableRecord
  2
DIVIDETINY
 70
    0
  3
Divide (.15x) __..__..__..__..__..__..__..__.._
 72
   65
 73
    6
 40
4.7625
 49
1.905
 74
    0
 49
-0.9525
 74
    0
 49
0
 74
    0
 49
-0.9525
 74
    0
 49
0
 74
    0
 49
-0.9525
 74
    0
  0
LTYPE
  5
40
330
5
100
AcDbSymbolTableRecord
100
AcDbLinetypeTableRecord
  2
DIVIDE2
 70
    0
  3
Divide (.5x) __..__..__..__..__..__..__..__.._
 72
   65
 73
    6
 40
15.875
 49
6.35
 74
    0
 49
-3.175
 74
    0
 49
0
 74
    0
 49
-3.175
 74
    0
 49
0
 74
    0
 49
-3.175
 74
    0
  0
LTYPE
  5
41
330
5
100
AcDbSymbolTableRecord
100
AcDbLinetypeTableRecord
  2
DIVIDEX2
 70
    0
  3
Divide (2x) ________  .  .  ________  .  .  _
 72
   65
 73
    6
 40
63.5
 49
25.4
 74
    0
 49
-12.7
 74
    0
 49
0
 74
    0
 49
-12.7
 74
    0
 49
0
 74
    0
 49
-12.7
 74
    0
  0
LTYPE
  5
42
330
5
100
AcDbSymbolTableRecord
100
AcDbLinetypeTableRecord
  2
BORDER
 70
    0
  3
Border __ __ . __ __ . __ __ . __ __ . __ __ .
 72
   65
 73
    6
 40
44.45
 49
12.7
 74
    0
 49
-6.35
 74
    0
 49
12.7
 74
    0
 49
-6.35
 74
    0
 49
0
 74
    0
 49
-6.35
 74
    0
  0
LTYPE
  5
43
330
5
100
AcDbSymbolTableRecord
100
AcDbLinetypeTableRecord
  2
BORDERTINY
 70
    0
  3
Border (.15x) __.__.__.__.__.__.__.__.__.__.__.
 72
   65
 73
    6
 40
6.6675
 49
1.905
 74
    0
 49
-0.9525
 74
    0
 49
1.905
 74
    0
 49
-0.9525
 74
    0
 49
0
 74
    0
 49
-0.9525
 74
    0
  0
LTYPE
  5
44
330
5
100
AcDbSymbolTableRecord
100
AcDbLinetypeTableRecord
  2
BORDER2
 70
    0
  3
Border (.5x) __.__.__.__.__.__.__.__.__.__.__.
 72
   65
 73
    6
 40
22.225
 49
6.35
 74
    0
 49
-3.175
 74
    0
 49
6.35
 74
    0
 49
-3.175
 74
    0
 49
0
 74
    0
 49
-3.175
 74
    0
  0
LTYPE
  5
45
330
5
100
AcDbSymbolTableRecord
100
AcDbLinetypeTableRecord
  2
BORDERX2
 70
    0
  3
Border (2x) ____  ____  .  ____  ____  .  ___
 72
   65
 73
    6
 40
88.89999999999999
 49
25.4
 74
    0
 49
-12.7
 74
    0
 49
25.4
 74
    0
 49
-12.7
 74
    0
 49
0
 74
    0
 49
-12.7
 74
    0
  0
LTYPE
  5
46
330
5
100
AcDbSymbolTableRecord
100
AcDbLinetypeTableRecord
  2
CENTER
 70
    0
  3
Center ____ _ ____ _ ____ _ ____ _ ____ _ ____
 72
   65
 73
    4
 40
50.8
 49
31.75
 74
    0
 49
-6.35
 74
    0
 49
6.35
 74
    0
 49
-6.35
 74
    0
  0
LTYPE
  5
47
330
5
100
AcDbSymbolTableRecord
100
AcDbLinetypeTableRecord
  2
CENTERTINY
 70
    0
  3
Center (.15x) ___ _ ___ _ ___ _ ___ _ ___ _ ___
 72
   65
 73
    4
 40
7.619999999999999
 49
4.7625
 74
    0
 49
-0.9525
 74
    0
 49
0.9525
 74
    0
 49
-0.9525
 74
    0
  0
LTYPE
  5
48
330
5
100
AcDbSymbolTableRecord
100
AcDbLinetypeTableRecord
  2
CENTER2
 70
    0
  3
Center (.5x) ___ _ ___ _ ___ _ ___ _ ___ _ ___
 72
   65
 73
    4
 40
28.575
 49
19.05
 74
    0
 49
-3.175
 74
    0
 49
3.175
 74
    0
 49
-3.175
 74
    0
  0
LTYPE
  5
49
330
5
100
AcDbSymbolTableRecord
100
AcDbLinetypeTableRecord
  2
CENTERX2
 70
    0
  3
Center (2x) ________  __  ________  __  _____
 72
   65
 73
    4
 40
101.6
 49
63.5
 74
    0
 49
-12.7
 74
    0
 49
12.7
 74
    0
 49
-12.7
 74
    0
  0
ENDTAB
  0
TABLE
  2
LAYER
  5
2
330
0
100
AcDbSymbolTable
 70
    1
  0
LAYER
  5
10
330
2
100
AcDbSymbolTableRecord
100
AcDbLayerTableRecord
  2
0
 70
    0
 62
    5
  6
CONTINUOUS
370
    5
390
F
  0
LAYER
  5
4A
330
2
100
AcDbSymbolTableRecord
100
AcDbLayerTableRecord
  2
Airfoil
 70
    0
 62
  250
  6
CONTINUOUS
370
    5
390
F
  0
LAYER
  5
4B
330
2
100
AcDbSymbolTableRecord
100
AcDbLayerTableRecord
  2
Bulkheads
 70
    0
 62
  246
  6
CONTINUOUS
370
    5
390
F
  0
LAYER
  5
4C
330
2
100
AcDbSymbolTableRecord
100
AcDbLayerTableRecord
  2
CG
 70
    0
 62
    6
  6
CONTINUOUS
370
    5
390
F
  0
LAYER
  5
4D
330
2
100
AcDbSymbolTableRecord
100
AcDbLayerTableRecord
  2
Defpoints
 70
    0
 62
    7
  6
CONTINUOUS
290
0
370
   -3
390
F
  0
LAYER
  5
4E
330
2
100
AcDbSymbolTableRecord
100
AcDbLayerTableRecord
  2
Hardware
 70
    0
 62
    1
  6
CONTINUOUS
370
    5
390
F
  0
LAYER
  5
4F
330
2
100
AcDbSymbolTableRecord
100
AcDbLayerTableRecord
  2
KFM3
 70
    0
 62
  253
420
11370408
  6
CONTINUOUS
370
    5
390
F
  0
LAYER
  5
50
330
2
100
AcDbSymbolTableRecord
100
AcDbLayerTableRecord
  2
Markings
 70
    0
 62
  253
420
10526884
  6
CONTINUOUS
370
    5
390
F
  0
LAYER
  5
51
330
2
100
AcDbSymbolTableRecord
100
AcDbLayerTableRecord
  2
Paper Outline
 70
    0
 62
   30
420
16087296
  6
CONTINUOUS
290
0
370
    5
390
F
  0
LAYER
  5
52
330
2
100
AcDbSymbolTableRecord
100
AcDbLayerTableRecord
  2
Reference Lines
 70
    0
 62
  107
  6
DASHED
370
    5
390
F
  0
ENDTAB
  0
TABLE
  2
STYLE
  5
3
330
0
100
AcDbSymbolTable
 70
    3
  0
STYLE
  5
53
330
2
100
AcDbSymbolTableRecord
100
AcDbTextStyleTableRecord
  2
standard
 70
    0
 40
0
 41
1
 50
0
 71
    0
 42
1
  3
standard
  4

  0
STYLE
  5
54
330
2
100
AcDbSymbolTableRecord
100
AcDbTextStyleTableRecord
  2
iso
 70
    0
 40
0
 41
1
 50
0
 71
    0
 42
1
  3
iso
  4

  0
ENDTAB
  0
TABLE
  2
VIEW
  5
6
330
0
100
AcDbSymbolTable
 70
    0
  0
ENDTAB
  0
TABLE
  2
UCS
  5
7
330
0
100
AcDbSymbolTable
 70
    0
  0
ENDTAB
  0
TABLE
  2
APPID
  5
9
330
0
100
AcDbSymbolTable
 70
    1
  0
APPID
  5
12
330
9
100
AcDbSymbolTableRecord
100
AcDbRegAppTableRecord
  2
ACAD
 70
    0
  0
APPID
  5
55
330
9
100
AcDbSymbolTableRecord
100
AcDbRegAppTableRecord
  2
LibreCad
 70
    0
  0
ENDTAB
  0
TABLE
  2
DIMSTYLE
  5
A
330
0
100
AcDbSymbolTable
 70
    1
100
AcDbDimStyleTable
 71
    1
  0
DIMSTYLE
105
56
330
A
100
AcDbSymbolTableRecord
100
AcDbDimStyleTableRecord
  2
Standard
 70
    0
 40
1
 41
0.1805
 42
0.0625
 43
0.38
 44
0.18
 45
0
 46
0
 47
0
 48
0
 49
1
140
0.18
141
0.09
142
0
143
25.4
144
1
145
0
146
1
147
-0.09
148
0
 71
    0
 72
    0
 73
    1
 74
    1
 75
    0
 76
    0
 77
    0
 78
    0
 79
    0
170
    0
171
    2
172
    0
173
    0
174
    0
175
    0
176
    0
177
    0
178
    0
179
    0
271
    2
272
    4
273
    2
274
    2
275
    0
276
    0
277
    2
278
    0
279
    0
280
    0
281
    0
282
    0
283
    1
284
    0
285
    0
286
    0
288
    0
289
    3
340
standard
341

371
   -2
372
   -2
  0
ENDTAB
  0
TABLE
  2
BLOCK_RECORD
  5
1
330
0
100
AcDbSymbolTable
 70
    2
  0
BLOCK_RECORD
  5
1F
330
1
100
AcDbSymbolTableRecord
100
AcDbBlockTableRecord
  2
*Model_Space
 70
    0
280
    1
281
    0
  0
BLOCK_RECORD
  5
1E
330
1
100
AcDbSymbolTableRecord
100
AcDbBlockTableRecord
  2
*Paper_Space
 70
    0
280
    1
281
    0
  0
ENDTAB
  0
ENDSEC
  0
SECTION
  2
BLOCKS
  0
BLOCK
  5
20
330
1F
100
AcDbEntity
  8
0
100
AcDbBlockBegin
  2
*Model_Space
 70
    0
 10
0
 20
0
 30
0
  3
*Model_Space
  1

  0
ENDBLK
  5
21
330
1F
100
AcDbEntity
  8
0
100
AcDbBlockEnd
  0
BLOCK
  5
1C
330
1B
100
AcDbEntity
  8
0
100
AcDbBlockBegin
  2
*Paper_Space
 70
    0
 10
0
 20
0
 30
0
  3
*Paper_Space
  1

  0
ENDBLK
  5
1D
330
1F
100
AcDbEntity
  8
0
100
AcDbBlockEnd
  0
ENDSEC
  0
SECTION
  2
ENTITIES
  0
HATCH
  5
57
100
AcDbEntity
  8
CG
  6
ByLayer
 62
  256
370
   -1
100
AcDbHatch
 10
0
 20
0
 30
0
210
0
220
0
230
1
  2
SOLID
 70
    1
 71
    0
 91
    2
 92
    0
 93
   34
 72
    1
 10
12.97061179618865
 20
5.299822068473102
 11
12.97061179618865
 21
5.078547068473102
 72
    1
 10
12.97061179618865
 20
5.078547068473104
 11
12.95940440104226
 21
5.078831073364633
 72
    1
 10
12.95940440104226
 20
5.078831073364633
 11
12.94822577512006
 21
5.079682359002693
 72
    1
 10
12.94822577512006
 20
5.079682359002693
 11
12.9371046137961
 21
5.081098740149142
 72
    1
 10
12.9371046137961
 20
5.081098740149142
 11
12.92606946493355
 21
5.083076580973681
 72
    1
 10
12.92606946493355
 20
5.083076580973679
 11
12.91514865560287
 21
5.085610804387005
 72
    1
 10
12.91514865560287
 20
5.085610804387007
 11
12.90437021936653
 21
5.088694905073605
 72
    1
 10
12.90437021936653
 20
5.088694905073603
 11
12.89376182431732
 21
5.092320966190789
 72
    1
 10
12.89376182431732
 20
5.092320966190791
 11
12.88335070205467
 21
5.096479679691174
 72
    1
 10
12.88335070205467
 20
5.096479679691173
 11
12.87316357778164
 21
5.101160370216246
 72
    1
 10
12.87316357778164
 20
5.101160370216246
 11
12.86322660170156
 21
5.106351022499884
 72
    1
 10
12.86322660170156
 20
5.106351022499884
 11
12.85356528189093
 21
5.112038312211397
 72
    1
 10
12.85356528189093
 20
5.112038312211397
 11
12.84420441882054
 21
5.118207640158842
 72
    1
 10
12.84420441882054
 20
5.118207640158843
 11
12.83516804169295
 21
5.124843169764978
 72
    1
 10
12.83516804169295
 20
5.124843169764976
 11
12.82647934675995
 21
5.131927867719525
 72
    1
 10
12.82647934675995
 20
5.131927867719526
 11
12.81816063777806
 21
5.139443547703419
 72
    1
 10
12.81816063777806
 20
5.139443547703419
 11
12.81023326875512
 21
5.147370917072887
 72
    1
 10
12.81023326875512
 20
5.147370917072885
 11
12.80271758913484
 21
5.15568962638329
 72
    1
 10
12.80271758913484
 20
5.15568962638329
 11
12.79563289156009
 21
5.16437832162597
 72
    1
 10
12.79563289156009
 20
5.164378321625973
 11
12.78899736234894
 21
5.173414699043611
 72
    1
 10
12.78899736234894
 20
5.173414699043609
 11
12.78282803481069
 21
5.182775562383675
 72
    1
 10
12.78282803481069
 20
5.182775562383676
 11
12.77714074552148
 21
5.192436882442894
 72
    1
 10
12.77714074552148
 20
5.192436882442892
 11
12.7719500936722
 21
5.202373858749863
 72
    1
 10
12.7719500936722
 20
5.202373858749863
 11
12.76726940359242
 21
5.212560983227511
 72
    1
 10
12.76726940359242
 20
5.212560983227512
 11
12.76311069054712
 21
5.222972105671929
 72
    1
 10
12.76311069054712
 20
5.222972105671929
 11
12.75948462989364
 21
5.233580500879646
 72
    1
 10
12.75948462989364
 20
5.233580500879644
 11
12.75640052967818
 21
5.244358937250792
 72
    1
 10
12.75640052967818
 20
5.244358937250792
 11
12.75386630674223
 21
5.255279746692242
 72
    1
 10
12.75386630674223
 20
5.255279746692243
 11
12.75188846640004
 21
5.266314895641254
 72
    1
 10
12.75188846640004
 20
5.266314895641253
 11
12.75047208573972
 21
5.277436057027127
 72
    1
 10
12.75047208573972
 20
5.277436057027128
 11
12.74962080059029
 21
5.288614682986531
 72
    1
 10
12.74962080059029
 20
5.288614682986531
 11
12.74933679618865
 21
5.299822078145336
 72
    1
 10
12.74933679618865
 20
5.299822078145336
 11
12.74933679618865
 21
5.299822068473104
 72
    1
 10
12.74933679618865
 20
5.299822068473102
 11
12.97061179618865
 21
5.299822068473102
 97
    0
 92
    0
 93
    2
 72
    1
 10
12.97061179618865
 20
5.078547068473104
 11
12.97061179618865
 21
5.299822068473104
 72
    1
 10
12.97061179618865
 20
5.299822068473102
 11
12.97061179618865
 21
5.078547068473102
 97
    0
 75
    0
 76
    1
 98
    0
  0
HATCH
  5
58
100
AcDbEntity
  8
CG
  6
ByLayer
 62
  256
370
   -1
100
AcDbHatch
 10
0
 20
0
 30
0
210
0
220
0
230
1
  2
SOLID
 70
    1
 71
    0
 91
    2
 92
    0
 93
   34
 72
    1
 10
12.97217577243397
 20
5.299216614455133
 11
13.19345077243397
 21
5.299216614455133
 72
    1
 10
13.19345077243397
 20
5.299216614455133
 11
13.19316676754245
 21
5.31042400960152
 72
    1
 10
13.19316676754245
 20
5.310424009601518
 11
13.19231548190438
 21
5.32160263552371
 72
    1
 10
13.19231548190438
 20
5.32160263552371
 11
13.19089910075794
 21
5.332723796847682
 72
    1
 10
13.19089910075794
 20
5.332723796847684
 11
13.18892125993339
 21
5.343758945710229
 72
    1
 10
13.18892125993339
 20
5.343758945710227
 11
13.18638703652007
 21
5.354679755040915
 72
    1
 10
13.18638703652007
 20
5.354679755040915
 11
13.18330293583347
 21
5.365458191277243
 72
    1
 10
13.18330293583347
 20
5.365458191277243
 11
13.17967687471628
 21
5.376066586326468
 72
    1
 10
13.17967687471628
 20
5.376066586326469
 11
13.1755181612159
 21
5.386477708589102
 72
    1
 10
13.1755181612159
 20
5.3864777085891
 11
13.17083747069083
 21
5.396664832862139
 72
    1
 10
13.17083747069083
 20
5.396664832862139
 11
13.16564681840719
 21
5.406601808942214
 72
    1
 10
13.16564681840719
 20
5.406601808942216
 11
13.15995952869568
 21
5.416263128752846
 72
    1
 10
13.15995952869568
 20
5.416263128752845
 11
13.15379020074823
 21
5.425623991823238
 72
    1
 10
13.15379020074823
 20
5.425623991823239
 11
13.14715467114211
 21
5.434660368950831
 72
    1
 10
13.14715467114211
 20
5.434660368950829
 11
13.14006997318756
 21
5.443349063883821
 72
    1
 10
13.14006997318756
 20
5.443349063883821
 11
13.13255429320366
 21
5.451667772865712
 72
    1
 10
13.13255429320366
 20
5.451667772865713
 11
13.12462692383419
 21
5.459595141888657
 72
    1
 10
13.12462692383419
 20
5.459595141888655
 11
13.11630821452379
 21
5.46711082150894
 72
    1
 10
13.11630821452379
 20
5.467110821508942
 11
13.1076195192811
 21
5.474195519083692
 72
    1
 10
13.1076195192811
 20
5.474195519083692
 11
13.09858314186347
 21
5.480831048294824
 72
    1
 10
13.09858314186347
 20
5.480831048294824
 11
13.0892222785234
 21
5.487000375833098
 72
    1
 10
13.0892222785234
 20
5.487000375833098
 11
13.07956095846418
 21
5.492687665122294
 72
    1
 10
13.07956095846418
 20
5.492687665122292
 11
13.06962398215721
 21
5.497878316971575
 72
    1
 10
13.06962398215721
 20
5.497878316971575
 11
13.05943685767957
 21
5.502559007051356
 72
    1
 10
13.05943685767957
 20
5.502559007051356
 11
13.04902573523515
 21
5.506717720096655
 72
    1
 10
13.04902573523515
 20
5.506717720096655
 11
13.03841734002744
 21
5.510343780750136
 72
    1
 10
13.03841734002744
 20
5.510343780750136
 11
13.02763890365628
 21
5.513427880965589
 72
    1
 10
13.02763890365628
 20
5.513427880965589
 11
13.01671809421483
 21
5.515962103901554
 72
    1
 10
13.01671809421483
 20
5.515962103901554
 11
13.00568294526583
 21
5.517939944243731
 72
    1
 10
13.00568294526583
 20
5.517939944243731
 11
12.99456178387995
 21
5.519356324904057
 72
    1
 10
12.99456178387995
 20
5.519356324904059
 11
12.98338315792054
 21
5.520207610053491
 72
    1
 10
12.98338315792054
 20
5.520207610053489
 11
12.97217576276174
 21
5.520491614455131
 72
    1
 10
12.97217576276174
 20
5.520491614455131
 11
12.97217577243397
 21
5.520491614455131
 72
    1
 10
12.97217577243397
 20
5.520491614455131
 11
12.97217577243397
 21
5.299216614455131
 97
    0
 92
    0
 93
    2
 72
    1
 10
13.19345077243397
 20
5.299216614455133
 11
12.97217577243397
 21
5.299216614455133
 72
    1
 10
12.97217577243397
 20
5.299216614455133
 11
13.19345077243397
 21
5.299216614455133
 97
    0
 75
    0
 76
    1
 98
    0
  0
LINE
  5
59
100
AcDbEntity
  8
Reference Lines
  6
ByLayer
 62
  256
370
   -1
100
AcDbLine
 10
72.41486374198224
 20
5.730332073231414
 11
72.41486374198224
 21
5.667832073231414
  0
ELLIPSE
  5
5A
100
AcDbEntity
  8
0
  6
ByLayer
 62
  256
370
   -1
100
AcDbEllipse
 10
4.851771747909762
 20
4.160463150159323
 30
0
 11
0.08267576104740115
 21
0
 31
0
 40
0.2429906542056021
 41
0
 42
6.283185307179586
  0
TEXT
  5
5B
100
AcDbEntity
  8
Reference Lines
  6
ByLayer
 62
  256
370
   -1
100
AcDbText
 10
30.51390285277675
 20
12.44698483410869
 30
0
 40
0.06903779746770861
  1
HS Leading Edge
 50
90
 41
1
 51
0
  7
standard
 71
    0
 11
30.51390285277675
 21
12.44698483410869
 31
0
210
0
220
0
230
1
100
AcDbText
 73
    3
  0
LINE
  5
5C
100
AcDbEntity
  8
0
  6
ByLayer
 62
  256
370
   -1
100
AcDbLine
 10
30.77688694327612
 20
0.71881476985276
 11
30.77688694327612
 21
2.710289769852757
  0
LINE
  5
5D
100
AcDbEntity
  8
0
  6
ByLayer
 62
  256
370
   -1
100
AcDbLine
 10
30.77688694327612
 20
2.046464769852757
 11
36.03365425887696
 21
2.046464769852757
  0
LINE
  5
5E
100
AcDbEntity
  8
0
  6
ByLayer
 62
  256
370
   -1
100
AcDbLine
 10
30.77688694327612
 20
1.60391476985276
 11
36.03365425887696
 21
1.60391476985276
  0
LINE
  5
5F
100
AcDbEntity
  8
0
  6
ByLayer
 62
  256
370
   -1
100
AcDbLine
 10
30.77688694327612
 20
1.16136476985276
 11
36.03365425887696
 21
1.16136476985276
  0
LINE
  5
60
100
AcDbEntity
  8
0
  6
ByLayer
 62
  256
370
   -1
100
AcDbLine
 10
32.7965606714545
 20
2.044037727794937
 11
32.7965606714545
 21
0.7163877277949411
  0
LINE
  5
61
100
AcDbEntity
  8
0
  6
ByLayer
 62
  256
370
   -1
100
AcDbLine
 10
33.82637235159724
 20
2.046464769852757
 11
33.82637235159724
 21
0.71881476985276
  0
TEXT
  5
62
100
AcDbEntity
  8
0
  6
ByLayer
 62
  256
370
   -1
100
AcDbText
 10
32.86818077178092
 20
1.868112697122609
 30
0
 40
0.1106375
  1
360 In.Sq.
 50
0
 41
1
 51
0
  7
standard
 71
    0
 11
32.86818077178092
 21
1.868112697122609
 31
0
210
0
220
0
230
1
100
AcDbText
 73
    3
  0
TEXT
  5
63
100
AcDbEntity
  8
0
  6
ByLayer
 62
  256
370
   -1
100
AcDbText
 10
32.8377210869392
 20
1.467556148074853
 30
0
 40
0.1106375
  1
24-28 Oz.
 50
0
 41
1
 51
0
  7
standard
 71
    0
 11
32.8377210869392
 21
1.467556148074853
 31
0
210
0
220
0
230
1
100
AcDbText
 73
    3
  0
TEXT
  5
64
100
AcDbEntity
  8
0
  6
ByLayer
 62
  256
370
   -1
100
AcDbText
 10
32.85129988921285
 20
1.005808730206136
 30
0
 40
0.1106375
  1
Bill Bowne
 50
0
 41
1
 51
0
  7
standard
 71
    0
 11
32.85129988921285
 21
1.005808730206136
 31
0
210
0
220
0
230
1
100
AcDbText
 73
    3
  0
LWPOLYLINE
  5
65
100
AcDbEntity
  8
0
  6
ByLayer
 62
  256
370
   -1
100
AcDbPolyline
 90
    4
 70
    1
 43
0
 10
30.77111358444963
 20
2.710289769852757
 10
36.03365425887696
 20
2.710289769852757
 10
36.03365425887696
 20
0.71881476985276
 10
30.77111358444963
 20
0.71881476985276
  0
TEXT
  5
66
100
AcDbEntity
  8
0
  6
ByLayer
 62
  256
370
   -1
100
AcDbText
 10
31.24583898952306
 20
1.883983596584345
 30
0
 40
0.1106375
  1
Wing Area:
 50
0
 41
1
 51
0
  7
standard
 71
    0
 11
31.24583898952306
 21
1.883983596584345
 31
0
210
0
220
0
230
1
100
AcDbText
 73
    3
  0
TEXT
  5
67
100
AcDbEntity
  8
0
  6
ByLayer
 62
  256
370
   -1
100
AcDbText
 10
31.33366562792985
 20
1.449577939612536
 30
0
 40
0.1106375
  1
Weight:
 50
0
 41
1
 51
0
  7
standard
 71
    0
 11
31.33366562792985
 21
1.449577939612536
 31
0
210
0
220
0
230
1
100
AcDbText
 73
    3
  0
TEXT
  5
68
100
AcDbEntity
  8
0
  6
ByLayer
 62
  256
370
   -1
100
AcDbText
 10
30.81409157338556
 20
1.021948680717466
 30
0
 40
0.1106375
  1
Designed & Drawn by:
 50
0
 41
1
 51
0
  7
standard
 71
    0
 11
30.81409157338556
 21
1.021948680717466
 31
0
210
0
220
0
230
1
100
AcDbText
 73
    3
  0
TEXT
  5
69
100
AcDbEntity
  8
0
  6
ByLayer
 62
  256
370
   -1
100
AcDbText
 10
33.87448679050998
 20
1.89610897885678
 30
0
 40
0.1106375
  1
Wing Span:
 50
0
 41
1
 51
0
  7
standard
 71
    0
 11
33.87448679050998
 21
1.89610897885678
 31
0
210
0
220
0
230
1
100
AcDbText
 73
    3
  0
LINE
  5
6A
100
AcDbEntity
  8
0
  6
ByLayer
 62
  256
370
   -1
100
AcDbLine
 10
35.15699783838272
 20
2.057411309477253
 11
35.15699783838272
 21
0.729761309477253
  0
TEXT
  5
6B
100
AcDbEntity
  8
0
  6
ByLayer
 62
  256
370
   -1
100
AcDbText
 10
33.97455117127595
 20
1.000457885830515
 30
0
 40
0.1106375
  1
Date:
 50
0
 41
1
 51
0
  7
standard
 71
    0
 11
33.97455117127595
 21
1.000457885830515
 31
0
210
0
220
0
230
1
100
AcDbText
 73
    3
  0
TEXT
  5
6C
100
AcDbEntity
  8
0
  6
ByLayer
 62
  256
370
   -1
100
AcDbText
 10
33.93835276654032
 20
1.41637358167161
 30
0
 40
0.1106375
  1
Length:
 50
0
 41
1
 51
0
  7
standard
 71
    0
 11
33.93835276654032
 21
1.41637358167161
 31
0
210
0
220
0
230
1
100
AcDbText
 73
    3
  0
TEXT
  5
6D
100
AcDbEntity
  8
0
  6
ByLayer
 62
  256
370
   -1
100
AcDbText
 10
35.30967733902932
 20
1.458708619059885
 30
0
 40
0.1106375
  1
34.6 In.
 50
0
 41
1
 51
0
  7
standard
 71
    0
 11
35.30967733902932
 21
1.458708619059885
 31
0
210
0
220
0
230
1
100
AcDbText
 73
    3
  0
TEXT
  5
6E
100
AcDbEntity
  8
0
  6
ByLayer
 62
  256
370
   -1
100
AcDbText
 10
29.10764840635754
 20
5.102220254976256
 30
0
 40
0.1106375
  1
Exhaust
 50
0
 41
1
 51
0
  7
standard
 71
    0
 11
29.10764840635754
 21
5.102220254976256
 31
0
210
0
220
0
230
1
100
AcDbText
 73
    3
  0
TEXT
  5
6F
100
AcDbEntity
  8
0
  6
ByLayer
 62
  256
370
   -1
100
AcDbText
 10
29.10764840635754
 20
5.102220254976256
 30
0
 40
0.1106375
  1
Exhaust
 50
0
 41
1
 51
0
  7
standard
 71
    0
 11
29.10764840635754
 21
5.102220254976256
 31
0
210
0
220
0
230
1
100
AcDbText
 73
    3
  0
TEXT
  5
70
100
AcDbEntity
  8
0
  6
ByLayer
 62
  256
370
   -1
100
AcDbText
 10
3.077747978300561
 20
8.347467439701969
 30
0
 40
0.1
  1
3 degrees down, 3 degrees right
 50
0
 41
1
 51
0
  7
standard
 71
    0
 11
3.077747978300561
 21
8.347467439701969
 31
0
210
0
220
0
230
1
100
AcDbText
 73
    3
  0
MTEXT
  5
71
100
AcDbEntity
  8
0
  6
ByLayer
 62
  256
370
   -1
100
AcDbMText
 10
3.332072898777451
 20
4.432168697484437
 30
0
 40
0.1106375
 41
1.638049652777803
 71
    1
 72
    1
  1
{Open under nose\Pfor cooling and motor\Paccess}
  7
standard
210
0
220
0
230
1
 50
0
 73
    1
 44
1
  0
LINE
  5
72
100
AcDbEntity
  8
Hardware
  6
ByLayer
 62
  256
370
   -1
100
AcDbLine
 10
34.9240664335706
 20
6.505638331170545
 11
35.5878914335706
 21
6.505638331170545
  0
LINE
  5
73
100
AcDbEntity
  8
Hardware
  6
ByLayer
 62
  256
370
   -1
100
AcDbLine
 10
35.5878914335706
 20
6.560957081170544
 11
34.9240664335706
 21
6.560957081170544
  0
LINE
  5
74
100
AcDbEntity
  8
Hardware
  6
ByLayer
 62
  256
370
   -1
100
AcDbLine
 10
34.9240664335706
 20
6.560957081170544
 11
34.9240664335706
 21
6.505638331170545
  0
LINE
  5
75
100
AcDbEntity
  8
Hardware
  6
ByLayer
 62
  256
370
   -1
100
AcDbLine
 10
34.57526393993047
 20
6.41028296649036
 11
34.57543127879516
 21
6.41028296649036
  0
LINE
  5
76
100
AcDbEntity
  8
Hardware
  6
ByLayer
 62
  256
370
   -1
100
AcDbLine
 10
34.51994518993047
 20
6.490956143632699
 11
34.51994518993047
 21
6.465601716490361
  0
LINE
  5
77
100
AcDbEntity
  8
0
  6
ByLayer
 62
  256
370
   -1
100
AcDbLine
 10
2.97256693840531
 20
5.714740465719236
 11
2.949399780006772
 21
6.378161081465197
  0
LINE
  5
78
100
AcDbEntity
  8
0
  6
ByLayer
 62
  256
370
   -1
100
AcDbLine
 10
2.949399780006772
 20
6.378161081465197
 11
1.622558548514869
 21
6.33182676466812
  0
LINE
  5
79
100
AcDbEntity
  8
0
  6
ByLayer
 62
  256
370
   -1
100
AcDbLine
 10
2.949399780006766
 20
6.378161081465197
 11
1.622558548514863
 21
6.331826764668114
  0
LINE
  5
7A
100
AcDbEntity
  8
Reference Lines
  6
ByLayer
 62
  256
370
   -1
100
AcDbLine
 10
1.728601502744679
 20
2.425361186441655
 11
37.72860150274468
 21
2.425361186441655
  0
LINE
  5
7B
100
AcDbEntity
  8
0
  6
ByLayer
 62
  256
370
   -1
100
AcDbLine
 10
4.579838918588814
 20
7.263809532401901
 11
4.579838918588814
 21
5.043823564680145
  0
LINE
  5
7C
100
AcDbEntity
  8
0
  6
ByLayer
 62
  256
370
   -1
100
AcDbLine
 10
4.703265972147031
 20
7.466238788546382
 11
4.704838918588815
 21
5.272032282887081
  0
SPLINE
  5
7D
100
AcDbEntity
  8
0
  6
ByLayer
 62
  256
370
   -1
100
AcDbSpline
210
0
220
0
230
0
 70
    8
 71
    3
 72
   10
 73
    6
 74
    0
 42
1e-07
 43
1e-07
 40
0
 40
0
 40
0
 40
0
 40
1.177125957815225
 40
2.135953927118769
 40
4.200625572200914
 40
4.200625572200914
 40
4.200625572200914
 40
4.200625572200914
 10
4.579838918588814
 20
7.713951794695273
 30
0
 10
4.187587605031392
 20
7.704087810405007
 30
0
 10
3.416412234930331
 20
7.535328900984908
 30
0
 10
2.722182267666713
 20
6.032816124984723
 30
0
 10
3.904088692982778
 20
5.281946004302368
 30
0
 10
4.579838918588814
 20
5.045523010183924
 30
0
  0
LWPOLYLINE
  5
7E
100
AcDbEntity
  8
0
  6
ByLayer
 62
  256
370
   -1
100
AcDbPolyline
 90
    4
 70
    1
 43
0
 10
4.704838918588815
 20
5.272032282887081
 10
4.703265972147031
 20
7.466238788546382
 10
4.57826597214703
 20
7.466238788546382
 10
4.579838918588814
 20
5.272032282887081
  0
MTEXT
  5
7F
100
AcDbEntity
  8
0
  6
ByLayer
 62
  256
370
   -1
100
AcDbMText
 10
6.249583881096754
 20
7.681851267474077
 30
0
 40
0.1
 41
2.233333487619516
 71
    1
 72
    5
  1
{hatch top layer overlaps sides}
  7
standard
210
0
220
0
230
1
 50
0
 73
    1
 44
1
  0
LINE
  5
80
100
AcDbEntity
  8
Hardware
  6
ByLayer
 62
  256
370
   -1
100
AcDbLine
 10
35.5878914335706
 20
6.560957081170544
 11
35.5878914335706
 21
6.505638331170545
  0
SPLINE
  5
81
100
AcDbEntity
  8
0
  6
ByLayer
 62
  256
370
   -1
100
AcDbSpline
210
0
220
0
230
0
 70
    8
 71
    3
 72
   10
 73
    6
 74
    0
 42
1e-07
 43
1e-07
 40
0
 40
0
 40
0
 40
0
 40
1.177125957815225
 40
2.135953927118769
 40
4.200625572200916
 40
4.200625572200916
 40
4.200625572200916
 40
4.200625572200916
 10
4.579838918588814
 20
7.713951794695273
 30
0
 10
4.187587605031392
 20
7.704087810405007
 30
0
 10
3.416412234930331
 20
7.535328900984908
 30
0
 10
2.722182267666713
 20
6.032816124984723
 30
0
 10
3.904088692982778
 20
5.281946004302362
 30
0
 10
4.579838918588815
 20
5.045523010183921
 30
0
  0
LINE
  5
82
100
AcDbEntity
  8
0
  6
ByLayer
 62
  256
370
   -1
100
AcDbLine
 10
4.579838918588814
 20
7.713951794695273
 11
4.704838918588814
 21
7.713951794695273
  0
LINE
  5
83
100
AcDbEntity
  8
0
  6
ByLayer
 62
  256
370
   -1
100
AcDbLine
 10
32.25815390906279
 20
7.953962144738515
 11
32.22690390906279
 21
8.203962144738515
  0
LINE
  5
84
100
AcDbEntity
  8
0
  6
ByLayer
 62
  256
370
   -1
100
AcDbLine
 10
32.22690390906279
 20
8.203962144738515
 11
32.19565390906279
 21
7.953962144738515
  0
LINE
  5
85
100
AcDbEntity
  8
0
  6
ByLayer
 62
  256
370
   -1
100
AcDbLine
 10
31.45743509610518
 20
7.214057418840973
 11
31.48868509610518
 21
6.964057418840973
  0
LINE
  5
86
100
AcDbEntity
  8
0
  6
ByLayer
 62
  256
370
   -1
100
AcDbLine
 10
31.48868509610518
 20
6.964057418840973
 11
31.51993509610518
 21
7.214057418840973
  0
LINE
  5
87
100
AcDbEntity
  8
0
  6
ByLayer
 62
  256
370
   -1
100
AcDbLine
 10
31.51993509610518
 20
7.214057418840973
 11
31.51993509610518
 21
7.714057418840973
  0
LINE
  5
88
100
AcDbEntity
  8
0
  6
ByLayer
 62
  256
370
   -1
100
AcDbLine
 10
31.45743509610518
 20
7.714057418840973
 11
31.45743509610518
 21
7.214057418840973
  0
LINE
  5
89
100
AcDbEntity
  8
0
  6
ByLayer
 62
  256
370
   -1
100
AcDbLine
 10
34.19406901380842
 20
7.214057418840973
 11
34.22531901380842
 21
6.964057418840973
  0
LINE
  5
8A
100
AcDbEntity
  8
0
  6
ByLayer
 62
  256
370
   -1
100
AcDbLine
 10
34.22531901380842
 20
6.964057418840973
 11
34.25656901380842
 21
7.214057418840973
  0
LINE
  5
8B
100
AcDbEntity
  8
0
  6
ByLayer
 62
  256
370
   -1
100
AcDbLine
 10
34.25656901380842
 20
7.214057418840973
 11
34.25656901380842
 21
7.714057418840973
  0
LINE
  5
8C
100
AcDbEntity
  8
0
  6
ByLayer
 62
  256
370
   -1
100
AcDbLine
 10
34.19406901380842
 20
7.714057418840973
 11
34.19406901380842
 21
7.214057418840973
  0
LINE
  5
8D
100
AcDbEntity
  8
0
  6
ByLayer
 62
  256
370
   -1
100
AcDbLine
 10
34.1535262891017
 20
7.943826463561837
 11
34.1222762891017
 21
8.193826463561837
  0
LINE
  5
8E
100
AcDbEntity
  8
0
  6
ByLayer
 62
  256
370
   -1
100
AcDbLine
 10
34.1222762891017
 20
8.193826463561837
 11
34.0910262891017
 21
7.943826463561837
  0
MTEXT
  5
8F
100
AcDbEntity
  8
0
  6
ByLayer
 62
  256
370
   -1
100
AcDbMText
 10
32.4619152374619
 20
8.10354481017475
 30
0
 40
0.1
 41
1.230555606984285
 71
    1
 72
    5
  1
{Toothpicks buried\Pin fin & HS}
  7
standard
210
0
220
0
230
1
 50
0
 73
    1
 44
1
  0
LINE
  5
90
100
AcDbEntity
  8
0
  6
ByLayer
 62
  256
370
   -1
100
AcDbLine
 10
5.204838918588815
 20
7.217095182604165
 11
5.204838918588815
 21
7.457998237149513
  0
MTEXT
  5
91
100
AcDbEntity
  8
0
  6
ByLayer
 62
  256
370
   -1
100
AcDbMText
 10
4.112349275390331
 20
7.606261491624391
 30
0
 40
0.1
 41
1.105555606984289
 71
    1
 72
    5
  1
{scrap foam fill}
  7
standard
210
0
220
0
230
1
 50
0
 73
    1
 44
1
  0
LINE
  5
92
100
AcDbEntity
  8
0
  6
ByLayer
 62
  256
370
   -1
100
AcDbLine
 10
4.704838918588814
 20
7.467095182604165
 11
35.00123917417397
 21
7.467095182604165
  0
LINE
  5
93
100
AcDbEntity
  8
0
  6
ByLayer
 62
  256
370
   -1
100
AcDbLine
 10
5.204838918588815
 20
7.217095182604165
 11
9.824550826371599
 21
7.217095182604165
  0
LINE
  5
94
100
AcDbEntity
  8
0
  6
ByLayer
 62
  256
370
   -1
100
AcDbLine
 10
18.26184480403069
 20
7.715643685871974
 11
18.26146772825368
 21
7.959801951579216
  0
LINE
  5
95
100
AcDbEntity
  8
0
  6
ByLayer
 62
  256
370
   -1
100
AcDbLine
 10
18.55215124006433
 20
8.206855492164157
 11
21.60391166651522
 21
7.703516909955175
  0
LINE
  5
96
100
AcDbEntity
  8
0
  6
ByLayer
 62
  256
370
   -1
100
AcDbLine
 10
14.72975214497659
 20
7.715643685871974
 11
15.90861974903844
 21
8.448838677341318
  0
LINE
  5
97
100
AcDbEntity
  8
0
  6
ByLayer
 62
  256
370
   -1
100
AcDbLine
 10
15.90861974903844
 20
8.448838677341318
 11
15.90861974903844
 21
7.715643685871974
  0
LINE
  5
98
100
AcDbEntity
  8
0
  6
ByLayer
 62
  256
370
   -1
100
AcDbLine
 10
15.90861974903844
 20
7.715643685871974
 11
15.90861974903844
 21
7.465643685871974
  0
LINE
  5
99
100
AcDbEntity
  8
0
  6
ByLayer
 62
  256
370
   -1
100
AcDbLine
 10
15.90861974903844
 20
7.465643685871974
 11
14.72975214497659
 21
7.715643685871974
  0
ARC
  5
9A
100
AcDbEntity
  8
0
  6
ByLayer
 62
  256
370
   -1
100
AcDbCircle
 10
18.51146743011135
 20
7.96018804881642
 40
0.25
100
AcDbArc
 50
80.63430486700497
 51
180.088487003869
  0
MTEXT
  5
9B
100
AcDbEntity
  8
0
  6
ByLayer
 62
  256
370
   -1
100
AcDbMText
 10
18.40268239458931
 20
7.919790283893835
 30
0
 40
0.1
 41
1.494444495873188
 71
    1
 72
    5
  1
{foam block headrest}
  7
standard
210
0
220
0
230
1
 50
0
 73
    1
 44
1
  0
LWPOLYLINE
  5
9C
100
AcDbEntity
  8
0
  6
ByLayer
 62
  256
370
   -1
100
AcDbPolyline
 90
    4
 70
    1
 43
0
 10
4.954838918588815
 20
7.342095182604165
 10
4.954838918588815
 20
7.467095182604165
 10
5.454838918588815
 20
7.467095182604165
 10
5.454838918588815
 20
7.342095182604165
  0
LINE
  5
9D
100
AcDbEntity
  8
0
  6
ByLayer
 62
  256
370
   -1
100
AcDbLine
 10
34.92371083018693
 20
13.28360354999528
 11
34.92371083018693
 21
13.14523570998313
  0
LINE
  5
9E
100
AcDbEntity
  8
0
  6
ByLayer
 62
  256
370
   -1
100
AcDbLine
 10
3.074058408120063
 20
14.11136042088693
 11
3.074058408120063
 21
14.61136250233249
  0
LINE
  5
9F
100
AcDbEntity
  8
0
  6
ByLayer
 62
  256
370
   -1
100
AcDbLine
 10
3.074058408120064
 20
11.95585607885598
 11
18.36290137839362
 21
11.95585607885598
  0
LINE
  5
A0
100
AcDbEntity
  8
0
  6
ByLayer
 62
  256
370
   -1
100
AcDbLine
 10
31.40357626698155
 20
13.28360929059424
 11
34.92371083018693
 21
13.2836150311932
  0
LINE
  5
A1
100
AcDbEntity
  8
0
  6
ByLayer
 62
  256
370
   -1
100
AcDbLine
 10
34.92371083018693
 20
13.2836150311932
 11
34.92371083018693
 21
13.5336150311932
  0
LINE
  5
A2
100
AcDbEntity
  8
0
  6
ByLayer
 62
  256
370
   -1
100
AcDbLine
 10
18.38460884960075
 20
14.61123294965635
 11
3.074058408120059
 21
14.61136042090425
  0
ARC
  5
A3
100
AcDbEntity
  8
0
  6
ByLayer
 62
  256
370
   -1
100
AcDbCircle
 10
19.16479637918796
 20
-100.8730904855629
 40
115.4869587956651
100
AcDbArc
 50
82.15716523437132
 51
90.38707221287754
  0
LINE
  5
A4
100
AcDbEntity
  8
0
  6
ByLayer
 62
  256
370
   -1
100
AcDbLine
 10
18.38460468674428
 20
14.11123294967368
 11
3.074054245263591
 21
14.11136042092159
  0
LINE
  5
A5
100
AcDbEntity
  8
0
  6
ByLayer
 62
  256
370
   -1
100
AcDbLine
 10
3.074058408120064
 20
12.45585607885598
 11
18.36290137839362
 21
12.45585607885598
  0
ARC
  5
A6
100
AcDbEntity
  8
0
  6
ByLayer
 62
  256
370
   -1
100
AcDbCircle
 10
19.16479637918796
 20
-100.8730904855629
 40
114.9869587956651
100
AcDbArc
 50
83.11059364486911
 51
90.38707221287754
  0
ARC
  5
A7
100
AcDbEntity
  8
0
  6
ByLayer
 62
  256
370
   -1
100
AcDbCircle
 10
19.16479637918796
 20
127.4403090667514
 40
114.9869587956651
100
AcDbArc
 50
269.6129277871225
 51
276.889406355131
  0
LINE
  5
A8
100
AcDbEntity
  8
0
  6
ByLayer
 62
  256
370
   -1
100
AcDbLine
 10
4.57983891858881
 20
14.36134788419931
 11
4.579838918588811
 21
12.20585607885598
  0
ARC
  5
A9
100
AcDbEntity
  8
0
  6
ByLayer
 62
  256
370
   -1
100
AcDbCircle
 10
19.17004171037162
 20
127.4410445238752
 40
115.4869587956651
100
AcDbArc
 50
269.6102951394425
 51
277.8402021179487
  0
LINE
  5
AA
100
AcDbEntity
  8
Hardware
  6
ByLayer
 62
  256
370
   -1
100
AcDbLine
 10
33.43230460098356
 20
12.83814094324713
 11
33.43230460098356
 21
13.72916019483451
  0
LINE
  5
AB
100
AcDbEntity
  8
0
  6
ByLayer
 62
  256
370
   -1
100
AcDbLine
 10
33.43230460098356
 20
12.83814094324713
 11
33.43230460098356
 21
13.72916019483451
  0
LINE
  5
AC
100
AcDbEntity
  8
Hardware
  6
ByLayer
 62
  256
370
   -1
100
AcDbLine
 10
33.43230460098356
 20
13.72916019483451
 11
33.43230460098356
 21
13.72916019483451
  0
LINE
  5
AD
100
AcDbEntity
  8
0
  6
ByLayer
 62
  256
370
   -1
100
AcDbLine
 10
4.954838918588815
 20
13.28360929059424
 11
4.954838918588815
 21
13.28360929059424
  0
LINE
  5
AE
100
AcDbEntity
  8
0
  6
ByLayer
 62
  256
370
   -1
100
AcDbLine
 10
5.079838918588815
 20
13.40860929059424
 11
5.454838918588815
 21
13.40860929059424
  0
LINE
  5
AF
100
AcDbEntity
  8
0
  6
ByLayer
 62
  256
370
   -1
100
AcDbLine
 10
5.454838918588815
 20
13.40860929059424
 11
5.454838918588815
 21
13.15860929059424
  0
LINE
  5
B0
100
AcDbEntity
  8
0
  6
ByLayer
 62
  256
370
   -1
100
AcDbLine
 10
5.454838918588815
 20
13.15860929059424
 11
5.079838918588815
 21
13.15860929059424
  0
ARC
  5
B1
100
AcDbEntity
  8
0
  6
ByLayer
 62
  256
370
   -1
100
AcDbCircle
 10
5.079838918588815
 20
13.28360929059424
 40
0.1250000000000001
100
AcDbArc
 50
90
 51
180
  0
ARC
  5
B2
100
AcDbEntity
  8
0
  6
ByLayer
 62
  256
370
   -1
100
AcDbCircle
 10
5.079838918588815
 20
13.28360929059424
 40
0.1250000000000001
100
AcDbArc
 50
180
 51
270
  0
MTEXT
  5
B3
100
AcDbEntity
  8
0
  6
ByLayer
 62
  256
370
   -1
100
AcDbMText
 10
5.521970152486846
 20
13.14717394111272
 30
0
 40
0.125
 41
2.489583461905162
 71
    1
 72
    5
  1
{Popsicle stick hatch tongue}
  7
standard
210
0
220
0
230
1
 50
0
 73
    1
 44
1
  0
LINE
  5
B4
100
AcDbEntity
  8
0
  6
ByLayer
 62
  256
370
   -1
100
AcDbLine
 10
4.57983891858881
 20
14.36134788419931
 11
4.704838918588809
 21
14.36134788419931
  0
LINE
  5
B5
100
AcDbEntity
  8
0
  6
ByLayer
 62
  256
370
   -1
100
AcDbLine
 10
4.579838918588811
 20
12.20585607885598
 11
4.704838918588811
 21
12.20585607885598
  0
LINE
  5
B6
100
AcDbEntity
  8
0
  6
ByLayer
 62
  256
370
   -1
100
AcDbLine
 10
18.38460676817252
 20
14.36123294966502
 11
3.074056326691825
 21
14.36136042091292
  0
LINE
  5
B7
100
AcDbEntity
  8
0
  6
ByLayer
 62
  256
370
   -1
100
AcDbLine
 10
3.074058408120064
 20
12.20585607885598
 11
18.38460884960075
 21
12.20585607885598
  0
LINE
  5
B8
100
AcDbEntity
  8
0
  6
ByLayer
 62
  256
370
   -1
100
AcDbLine
 10
35.0012
 20
11.8544
 11
35.0012
 21
5.95494
  0
LWPOLYLINE
  5
B9
100
AcDbEntity
  8
Hardware
  6
ByLayer
 62
  256
370
   -1
100
AcDbPolyline
 90
   61
 70
    0
 43
0
 10
2.125419870035396
 20
6.34129523037794
 10
2.124934636855639
 20
6.340602427532927
 10
2.124538615241653
 20
6.339867540135575
 10
2.124229807926355
 20
6.339096591830821
 10
2.124006217642661
 20
6.338295606263617
 10
2.123865847123489
 20
6.337470607078896
 10
2.123806699101756
 20
6.336627617921614
 10
2.123826776310378
 20
6.335772662436717
 10
2.123924081482271
 20
6.334911764269143
 10
2.124096617350354
 20
6.334050947063838
 10
2.124342386647543
 20
6.333196234465749
 10
2.124659392106755
 20
6.332353650119823
 10
2.125045636460907
 20
6.331529217671002
 10
2.125499122442915
 20
6.330728960764228
 10
2.126017852785697
 20
6.32995890304445
 10
2.12659983022217
 20
6.329225068156614
 10
2.12724305748525
 20
6.328533479745661
 10
2.127945537307854
 20
6.327890161456541
 10
2.128705272422899
 20
6.327301136934192
 10
2.129520265563303
 20
6.326772429823564
 10
2.130388519461981
 20
6.326310063769602
 10
2.142546078225751
 20
6.320484003075544
 10
2.154700395667557
 20
6.314633684689164
 10
2.166858941713787
 20
6.308771221913926
 10
2.179029186290829
 20
6.302908728053304
 10
2.191218599325069
 20
6.297058316410763
 10
2.203434650742895
 20
6.29123210028977
 10
2.215684810470694
 20
6.285442192993804
 10
2.227976548434853
 20
6.279700707826322
 10
2.240317334561758
 20
6.274019758090798
 10
2.252714638777798
 20
6.268411457090696
 10
2.265175931009359
 20
6.262887918129494
 10
2.277708681182828
 20
6.257461254510654
 10
2.290320359224594
 20
6.252143579537646
 10
2.303018435061041
 20
6.246947006513936
 10
2.31581037861856
 20
6.241883648742997
 10
2.328703659823534
 20
6.236965619528296
 10
2.341705748602353
 20
6.232205032173301
 10
2.354824114881403
 20
6.227613999981481
 10
2.368066228587072
 20
6.223204636256307
 10
2.381439559645746
 20
6.218989054301244
 10
2.399422393801031
 20
6.213561102419583
 10
2.417488939180648
 20
6.208261178867149
 10
2.435636383686207
 20
6.203089914361216
 10
2.453861915219321
 20
6.198047939619064
 10
2.472162721681599
 20
6.193135885357965
 10
2.490535990974653
 20
6.188354382295199
 10
2.508978911000095
 20
6.183704061148044
 10
2.527488669659535
 20
6.179185552633776
 10
2.546062454854586
 20
6.17479948746967
 10
2.564697454486857
 20
6.170546496373003
 10
2.583390856457961
 20
6.166427210061059
 10
2.602139848669508
 20
6.162442259251105
 10
2.62094161902311
 20
6.158592274660423
 10
2.639793355420378
 20
6.154877887006289
 10
2.658692245762924
 20
6.151299727005982
 10
2.677635477952357
 20
6.147858425376776
 10
2.69662023989029
 20
6.144554612835949
 10
2.715643719478334
 20
6.141388920100777
 10
2.734703104618101
 20
6.138361977888539
 10
2.7537955832112
 20
6.135474416916511
  0
LWPOLYLINE
  5
BA
100
AcDbEntity
  8
Hardware
  6
ByLayer
 62
  256
370
   -1
100
AcDbPolyline
 90
   61
 70
    0
 43
0
 10
2.125419870035393
 20
6.341295230377938
 10
2.124868376350331
 20
6.341962090914404
 10
2.124401780097237
 20
6.342675392781738
 10
2.124018675260038
 20
6.343429027173682
 10
2.12371765582266
 20
6.344216885283976
 10
2.123497315769031
 20
6.34503285830636
 10
2.123356249083077
 20
6.345870837434576
 10
2.123293049748724
 20
6.346724713862372
 10
2.1233063117499
 20
6.347588378783482
 10
2.123394629070532
 20
6.34845572339165
 10
2.123556595694545
 20
6.349320638880615
 10
2.123790805605868
 20
6.350177016444123
 10
2.124095852788426
 20
6.351018747275913
 10
2.124470331226146
 20
6.351839722569726
 10
2.124912834902956
 20
6.352633833519302
 10
2.125421957802781
 20
6.353394971318387
 10
2.125996293909548
 20
6.354117027160717
 10
2.126634437207186
 20
6.35479389224004
 10
2.127334981679619
 20
6.35541945775009
 10
2.128096521310775
 20
6.355987614884612
 10
2.128917650084581
 20
6.35649225483735
 10
2.140478442178405
 20
6.362911826510045
 10
2.152033639424323
 20
6.369355434765097
 10
2.163591872750136
 20
6.375811369195244
 10
2.175161773083647
 20
6.382267919393237
 10
2.18675197135266
 20
6.388713374951813
 10
2.198371098484978
 20
6.395136025463719
 10
2.210027785408403
 20
6.401524160521703
 10
2.221730663050739
 20
6.407866069718503
 10
2.233488362339787
 20
6.414150042646862
 10
2.245309514203353
 20
6.420364368899526
 10
2.257202749569237
 20
6.426497338069242
 10
2.269176699365244
 20
6.432537239748751
 10
2.281239994519175
 20
6.438472363530796
 10
2.293401265958835
 20
6.444290999008117
 10
2.305669144612026
 20
6.449981435773466
 10
2.318052261406551
 20
6.455531963419582
 10
2.330559247270213
 20
6.460930871539209
 10
2.343198733130814
 20
6.466166449725091
 10
2.355979349916159
 20
6.471226987569973
 10
2.368909728554049
 20
6.476100774666598
 10
2.386320360792263
 20
6.482414387233638
 10
2.403826963554815
 20
6.488604467698496
 10
2.421426792992089
 20
6.494670246315837
 10
2.439117105254473
 20
6.500610953340341
 10
2.456895156492351
 20
6.506425819026664
 10
2.474758202856111
 20
6.512114073629485
 10
2.492703500496138
 20
6.517674947403478
 10
2.510728305562818
 20
6.523107670603305
 10
2.528829874206537
 20
6.528411473483638
 10
2.547005462577682
 20
6.53358558629915
 10
2.565252326826638
 20
6.538629239304513
 10
2.583567723103792
 20
6.543541662754392
 10
2.601948907559529
 20
6.548322086903461
 10
2.620393136344236
 20
6.552969742006385
 10
2.638897665608299
 20
6.557483858317842
 10
2.657459751502103
 20
6.561863666092495
 10
2.676076650176035
 20
6.566108395585021
 10
2.694745617780481
 20
6.570217277050084
 10
2.713463910465827
 20
6.574189540742357
 10
2.732228784382458
 20
6.578024416916511
  0
MTEXT
  5
BB
100
AcDbEntity
  8
0
  6
ByLayer
 62
  256
370
   -1
100
AcDbMText
 10
19.75805434415161
 20
6.293930321858443
 30
0
 40
0.1
 41
1.563888888888922
 71
    1
 72
    5
  1
1/4" foam fuse sides\Pwith 1/4" foam bracing
  7
standard
210
0
220
0
230
1
 50
0
 73
    1
 44
1
  0
MTEXT
  5
BC
100
AcDbEntity
  8
0
  6
ByLayer
 62
  256
370
   -1
100
AcDbMText
 10
6.346671469834957
 20
7.370602238605927
 30
0
 40
0.1
 41
2.3222223250797
 71
    1
 72
    5
  1
{hatch inner layer between sides}
  7
standard
210
0
220
0
230
1
 50
0
 73
    1
 44
1
  0
MTEXT
  5
BD
100
AcDbEntity
  8
0
  6
ByLayer
 62
  256
370
   -1
100
AcDbMText
 10
24.78941574349784
 20
7.672334860493795
 30
0
 40
0.125
 41
1.194444444444456
 71
    1
 72
    1
  1
1/4" foam top
  7
iso
210
0
220
0
230
1
 50
0
 73
    2
 44
1
  0
MTEXT
  5
BE
100
AcDbEntity
  8
0
  6
ByLayer
 62
  256
370
   -1
100
AcDbMText
 10
24.11640760703288
 20
7.421463567885196
 30
0
 40
0.125
 41
1.152777842063689
 71
    1
 72
    1
  1
1/4" sq. foam
  7
iso
210
0
220
0
230
1
 50
0
 73
    2
 44
1
  0
MTEXT
  5
BF
100
AcDbEntity
  8
0
  6
ByLayer
 62
  256
370
   -1
100
AcDbMText
 10
28.76919763762752
 20
6.726257385844118
 30
0
 40
0.125
 41
1.135416795238466
 71
    1
 72
    1
  1
Popsicle stick
  7
iso
210
0
220
0
230
1
 50
0
 73
    2
 44
1
  0
ARC
  5
C0
100
AcDbEntity
  8
0
  6
ByLayer
 62
  256
370
   -1
100
AcDbCircle
 10
28.35382761537553
 20
6.678759527220693
 40
0.09375
100
AcDbArc
 50
90
 51
180
  0
LINE
  5
C1
100
AcDbEntity
  8
0
  6
ByLayer
 62
  256
370
   -1
100
AcDbLine
 10
28.26007761537553
 20
6.678759527220693
 11
28.26007761537553
 21
6.616259527220693
  0
ARC
  5
C2
100
AcDbEntity
  8
0
  6
ByLayer
 62
  256
370
   -1
100
AcDbCircle
 10
28.35382761537553
 20
6.616259527220693
 40
0.09375
100
AcDbArc
 50
180
 51
270
  0
LINE
  5
C3
100
AcDbEntity
  8
0
  6
ByLayer
 62
  256
370
   -1
100
AcDbLine
 10
28.35382761537553
 20
6.522509527220693
 11
32.16632761537553
 21
6.522509527220693
  0
ARC
  5
C4
100
AcDbEntity
  8
0
  6
ByLayer
 62
  256
370
   -1
100
AcDbCircle
 10
32.16632761537553
 20
6.616259527220693
 40
0.09375
100
AcDbArc
 50
270
 51
0
  0
LINE
  5
C5
100
AcDbEntity
  8
0
  6
ByLayer
 62
  256
370
   -1
100
AcDbLine
 10
32.26007761537553
 20
6.616259527220693
 11
32.26007761537553
 21
6.678759527220693
  0
LINE
  5
C6
100
AcDbEntity
  8
0
  6
ByLayer
 62
  256
370
   -1
100
AcDbLine
 10
32.16632761537553
 20
6.772509527220693
 11
28.35382761537553
 21
6.772509527220693
  0
ARC
  5
C7
100
AcDbEntity
  8
0
  6
ByLayer
 62
  256
370
   -1
100
AcDbCircle
 10
32.16632761537553
 20
6.678759527220693
 40
0.09375
100
AcDbArc
 50
0
 51
90
  0
LINE
  5
C8
100
AcDbEntity
  8
0
  6
ByLayer
 62
  256
370
   -1
100
AcDbLine
 10
18.38460884960075
 20
7.467095182604164
 11
18.25960884960075
 21
7.467095182604164
  0
LINE
  5
C9
100
AcDbEntity
  8
0
  6
ByLayer
 62
  256
370
   -1
100
AcDbLine
 10
4.954877850526044
 20
5.217813169494933
 11
4.953444638328135
 21
7.217095182604165
  0
MTEXT
  5
CA
100
AcDbEntity
  8
0
  6
ByLayer
 62
  256
370
   -1
100
AcDbMText
 10
14.14210238116953
 20
34.5380874325992
 30
0
 40
0.1
 41
0
 71
    3
 72
    5
  1

  7
standard
210
0
220
0
230
1
 50
90
 73
    1
 44
1
  0
LINE
  5
CB
100
AcDbEntity
  8
Reference Lines
  6
ByLayer
 62
  256
370
   -1
100
AcDbLine
 10
1.622743113600893
 20
13.2836150311932
 11
37.65862741289858
 21
13.2836150311932
  0
LINE
  5
CC
100
AcDbEntity
  8
Reference Lines
  6
ByLayer
 62
  256
370
   -1
100
AcDbLine
 10
37.65862741289858
 20
14.95628971694286
 11
1.622743113600893
 21
14.95628971694283
  0
LINE
  5
CD
100
AcDbEntity
  8
0
  6
ByLayer
 62
  256
370
   -1
100
AcDbLine
 10
34.92371083018693
 20
13.28360354999528
 11
34.92371083018693
 21
13.03361661320576
  0
LINE
  5
CE
100
AcDbEntity
  8
Reference Lines
  6
ByLayer
 62
  256
370
   -1
100
AcDbLine
 10
37.65862741289858
 20
14.95628971694286
 11
37.65862741289858
 21
5.647565857631319
  0
LINE
  5
CF
100
AcDbEntity
  8
Reference Lines
  6
ByLayer
 62
  256
370
   -1
100
AcDbLine
 10
1.622743113600896
 20
14.95628971694283
 11
1.622743113600893
 21
4.22004730746352
  0
LINE
  5
D0
100
AcDbEntity
  8
0
  6
ByLayer
 62
  256
370
   -1
100
AcDbLine
 10
3.074058408120064
 20
12.45585607885598
 11
3.074058408120064
 21
11.95585607885598
  0
TEXT
  5
D1
100
AcDbEntity
  8
0
  6
ByLayer
 62
  256
370
   -1
100
AcDbText
 10
31.41206009437111
 20
2.54824892904516
 30
0
 40
0.28274
  1
Sassy Pursuit
 50
0
 41
1
 51
0
  7
standard
 71
    0
 11
31.41206009437111
 21
2.54824892904516
 31
0
210
0
220
0
230
1
100
AcDbText
 73
    3
  0
LINE
  5
D2
100
AcDbEntity
  8
Reference Lines
  6
ByLayer
 62
  256
370
   -1
100
AcDbLine
 10
1.622743113600893
 20
18.2836150311932
 11
37.65862741289858
 21
18.2836150311932
  0
LINE
  5
D3
100
AcDbEntity
  8
Reference Lines
  6
ByLayer
 62
  256
370
   -1
100
AcDbLine
 10
37.6586
 20
6.46161
 11
1.62274
 21
6.46161
  0
LINE
  5
D4
100
AcDbEntity
  8
Reference Lines
  6
ByLayer
 62
  256
370
   -1
100
AcDbLine
 10
35.0012
 20
18.2836150311932
 11
35.0012
 21
2.425361186441655
  0
LINE
  5
D5
100
AcDbEntity
  8
0
  6
ByLayer
 62
  256
370
   -1
100
AcDbLine
 10
4.704838918588814
 20
7.717095182604165
 11
31.06931462093952
 21
7.717095182604165
  0
LINE
  5
D6
100
AcDbEntity
  8
0
  6
ByLayer
 62
  256
370
   -1
100
AcDbLine
 10
35.0012
 20
7.467095182604164
 11
35.0012
 21
7.717095182604165
  0
LINE
  5
D7
100
AcDbEntity
  8
0
  6
ByLayer
 62
  256
370
   -1
100
AcDbLine
 10
31.06931462093952
 20
7.717095182604165
 11
31.06931462093952
 21
7.467095182604165
  0
LINE
  5
D8
100
AcDbEntity
  8
0
  6
ByLayer
 62
  256
370
   -1
100
AcDbLine
 10
32.19565390906279
 20
7.468136267836899
 11
32.25815390906279
 21
7.468136267836899
  0
LINE
  5
D9
100
AcDbEntity
  8
0
  6
ByLayer
 62
  256
370
   -1
100
AcDbLine
 10
32.25815390906279
 20
7.467095182604165
 11
32.25815390906279
 21
7.953962144738515
  0
LINE
  5
DA
100
AcDbEntity
  8
0
  6
ByLayer
 62
  256
370
   -1
100
AcDbLine
 10
32.19565390906279
 20
7.953962144738515
 11
32.19565390906279
 21
7.467095182604165
  0
LINE
  5
DB
100
AcDbEntity
  8
0
  6
ByLayer
 62
  256
370
   -1
100
AcDbLine
 10
34.0910262891017
 20
7.943826463561837
 11
34.0910262891017
 21
7.467095182604165
  0
LINE
  5
DC
100
AcDbEntity
  8
0
  6
ByLayer
 62
  256
370
   -1
100
AcDbLine
 10
34.1535262891017
 20
7.467095182604165
 11
34.1535262891017
 21
7.943826463561837
  0
LINE
  5
DD
100
AcDbEntity
  8
Hardware
  6
ByLayer
 62
  256
370
   -1
100
AcDbLine
 10
35.14956948162428
 20
7.467095182604165
 11
35.14956948162428
 21
7.182140757735374
  0
ARC
  5
DE
100
AcDbEntity
  8
Hardware
  6
ByLayer
 62
  256
370
   -1
100
AcDbCircle
 10
35.13063825642597
 20
6.469052734657995
 40
0.0553187500000021
100
AcDbArc
 50
270
 51
334.7429293964018
  0
LINE
  5
DF
100
AcDbEntity
  8
Hardware
  6
ByLayer
 62
  256
370
   -1
100
AcDbLine
 10
35.13063825642597
 20
6.413733984657995
 11
35.09540320555312
 21
6.413733984657995
  0
ARC
  5
E0
100
AcDbEntity
  8
Hardware
  6
ByLayer
 62
  256
370
   -1
100
AcDbCircle
 10
35.09540320555312
 20
6.469052734657995
 40
0.05531875
100
AcDbArc
 50
180
 51
270
  0
CIRCLE
  5
E1
100
AcDbEntity
  8
Hardware
  6
ByLayer
 62
  256
370
   -1
100
AcDbCircle
 10
35.10808041912428
 20
6.492650561184812
 40
0.027659375
  0
CIRCLE
  5
E2
100
AcDbEntity
  8
Hardware
  6
ByLayer
 62
  256
370
   -1
100
AcDbCircle
 10
35.10808041912428
 20
6.658606811184812
 40
0.027659375
  0
ARC
  5
E3
100
AcDbEntity
  8
Hardware
  6
ByLayer
 62
  256
370
   -1
100
AcDbCircle
 10
35.12191010662428
 20
7.047594661800334
 40
0.0818256510711711
100
AcDbArc
 50
104.4775121859042
 51
180
  0
LINE
  5
E4
100
AcDbEntity
  8
Hardware
  6
ByLayer
 62
  256
370
   -1
100
AcDbLine
 10
35.04008445555311
 20
7.047594661800334
 11
35.04008445555311
 21
6.494407161800334
  0
CIRCLE
  5
E5
100
AcDbEntity
  8
Hardware
  6
ByLayer
 62
  256
370
   -1
100
AcDbCircle
 10
35.10808041912428
 20
6.824563061184811
 40
0.027659375
  0
CIRCLE
  5
E6
100
AcDbEntity
  8
Hardware
  6
ByLayer
 62
  256
370
   -1
100
AcDbCircle
 10
35.10808041912428
 20
6.990519311184811
 40
0.027659375
  0
ARC
  5
E7
100
AcDbEntity
  8
Hardware
  6
ByLayer
 62
  256
370
   -1
100
AcDbCircle
 10
35.09425073162429
 20
7.182140757735374
 40
0.05531875
100
AcDbArc
 50
270
 51
0
  0
LINE
  5
E8
100
AcDbEntity
  8
Hardware
  6
ByLayer
 62
  256
370
   -1
100
AcDbLine
 10
35.18066867209008
 20
6.445449311024303
 11
35.66266227604556
 21
7.467095182604167
  0
LINE
  5
E9
100
AcDbEntity
  8
Hardware
  6
ByLayer
 62
  256
370
   -1
100
AcDbLine
 10
35.14956948162428
 20
7.467095182604165
 11
35.66266227604557
 21
7.467095182604165
  0
LINE
  5
EA
100
AcDbEntity
  8
0
  6
ByLayer
 62
  256
370
   -1
100
AcDbLine
 10
36.77806970416525
 20
7.717095182604169
 11
31.06931462093952
 21
7.717095182604165
  0
LINE
  5
EB
100
AcDbEntity
  8
0
  6
ByLayer
 62
  256
370
   -1
100
AcDbLine
 10
36.77806970416525
 20
7.467095182604168
 11
31.06931462093952
 21
7.467095182604165
  0
LINE
  5
EC
100
AcDbEntity
  8
0
  6
ByLayer
 62
  256
370
   -1
100
AcDbLine
 10
36.77806970416525
 20
7.717095182604167
 11
36.77806970416525
 21
7.467095182604168
  0
LINE
  5
ED
100
AcDbEntity
  8
0
  6
ByLayer
 62
  256
370
   -1
100
AcDbLine
 10
18.68982312383741
 20
4.728595788335382
 11
18.68982312383741
 21
7.217095182604165
  0
LINE
  5
EE
100
AcDbEntity
  8
0
  6
ByLayer
 62
  256
370
   -1
100
AcDbLine
 10
23.92924641978401
 20
7.217095182604165
 11
23.92924641978401
 21
5.243119477901415
  0
LINE
  5
EF
100
AcDbEntity
  8
0
  6
ByLayer
 62
  256
370
   -1
100
AcDbLine
 10
23.67924641978401
 20
7.217095182604165
 11
23.67924641978401
 21
5.218568889959604
  0
TEXT
  5
F0
100
AcDbEntity
  8
0
  6
ByLayer
 62
  256
370
   -1
100
AcDbText
 10
35.34611209792351
 20
1.02057129426039
 30
0
 40
0.110637
  1
 2019
 50
0
 41
1
 51
0
  7
standard
 71
    0
 11
35.34611209792351
 21
1.02057129426039
 31
0
210
0
220
0
230
1
100
AcDbText
 73
    3
  0
LINE
  5
F1
100
AcDbEntity
  8
0
  6
ByLayer
 62
  256
370
   -1
100
AcDbLine
 10
9.441870082449848
 20
4.909010922678985
 11
9.441869692663438
 21
4.909402194062645
  0
LINE
  5
F2
100
AcDbEntity
  8
0
  6
ByLayer
 62
  256
370
   -1
100
AcDbLine
 10
9.441869302877027
 20
4.909793465446304
 11
9.441869692663438
 21
4.909402194062645
  0
LINE
  5
F3
100
AcDbEntity
  8
0
  6
ByLayer
 62
  256
370
   -1
100
AcDbLine
 10
18.56482312383741
 20
4.368588102262248
 11
18.56482312383741
 21
7.467093460157568
  0
LINE
  5
F4
100
AcDbEntity
  8
0
  6
ByLayer
 62
  256
370
   -1
100
AcDbLine
 10
18.68982312383741
 20
4.368588102262248
 11
18.68982312383741
 21
7.467093460157568
  0
LWPOLYLINE
  5
F5
100
AcDbEntity
  8
Hardware
  6
ByLayer
 62
  256
370
   -1
100
AcDbPolyline
 90
    4
 70
    1
 43
0
 10
8.918836121064864
 20
7.343767311006686
 10
8.918836121064864
 20
7.259438443616719
 10
9.217230574906283
 20
7.259438443616719
 10
9.217230574906283
 20
7.343767311006686
  0
LINE
  5
F6
100
AcDbEntity
  8
0
  6
ByLayer
 62
  256
370
   -1
100
AcDbLine
 10
9.864217568836718
 20
7.713274853805999
 11
9.601670733369039
 21
7.397514576155277
  0
LINE
  5
F7
100
AcDbEntity
  8
0
  6
ByLayer
 62
  256
370
   -1
100
AcDbLine
 10
9.271228548489947
 20
7.88558459536203
 11
9.271228548489947
 21
7.88558459536203
  0
LINE
  5
F8
100
AcDbEntity
  8
0
  6
ByLayer
 62
  256
370
   -1
100
AcDbLine
 10
9.396228548489947
 20
7.76058459536203
 11
9.396228548489947
 21
7.38558459536203
  0
LINE
  5
F9
100
AcDbEntity
  8
0
  6
ByLayer
 62
  256
370
   -1
100
AcDbLine
 10
9.396228548489947
 20
7.38558459536203
 11
9.146228548489947
 21
7.38558459536203
  0
LINE
  5
FA
100
AcDbEntity
  8
0
  6
ByLayer
 62
  256
370
   -1
100
AcDbLine
 10
9.146228548489947
 20
7.38558459536203
 11
9.146228548489947
 21
7.76058459536203
  0
ARC
  5
FB
100
AcDbEntity
  8
0
  6
ByLayer
 62
  256
370
   -1
100
AcDbCircle
 10
9.271228548489947
 20
7.76058459536203
 40
0.1250000000000001
100
AcDbArc
 50
0
 51
90
  0
ARC
  5
FC
100
AcDbEntity
  8
0
  6
ByLayer
 62
  256
370
   -1
100
AcDbCircle
 10
9.271228548489947
 20
7.76058459536203
 40
0.1250000000000001
100
AcDbArc
 50
90
 51
180
  0
LINE
  5
FD
100
AcDbEntity
  8
0
  6
ByLayer
 62
  256
370
   -1
100
AcDbLine
 10
9.601670733369039
 20
7.397514576155277
 11
9.451656484628611
 21
7.217095182604165
  0
LINE
  5
FE
100
AcDbEntity
  8
Reference Lines
  6
ByLayer
 62
  256
370
   -1
100
AcDbLine
 10
18.93982312383741
 20
4.368588102262248
 11
18.93982312383741
 21
7.467093460157568
  0
LINE
  5
FF
100
AcDbEntity
  8
Reference Lines
  6
ByLayer
 62
  256
370
   -1
100
AcDbLine
 10
18.31482312383741
 20
4.368588102262248
 11
18.31482312383741
 21
7.467093460157568
  0
LWPOLYLINE
  5
100
100
AcDbEntity
  8
0
  6
ByLayer
 62
  256
370
   -1
100
AcDbPolyline
 90
    4
 70
    1
 43
0
 10
18.56482312385311
 20
14.36123399036181
 10
18.56482312385311
 20
12.20585607885598
 10
18.68982312385311
 20
12.20585607885598
 10
18.68982312385311
 20
14.36123399036181
  0
TEXT
  5
101
100
AcDbEntity
  8
0
  6
ByLayer
 62
  256
370
   -1
100
AcDbText
 10
18.09427042337826
 20
12.57551863107193
 30
0
 40
0.08851000000000001
  1
Wing bolt plate sandwich
 50
90
 41
1
 51
0
  7
standard
 71
    0
 11
18.09427042337826
 21
12.57551863107193
 31
0
210
0
220
0
230
1
100
AcDbText
 73
    3
  0
LWPOLYLINE
  5
102
100
AcDbEntity
  8
0
  6
ByLayer
 62
  256
370
   -1
100
AcDbPolyline
 90
    9
 70
    1
 43
0
 10
18.56482312385311
 20
14.36123399036181
 10
18.56482312385311
 20
14.03746447638848
 10
18.68982309672608
 20
14.03746447638848
 10
18.68982315098015
 20
12.52962559282931
 10
18.56482312385311
 20
12.52885333933948
 10
18.56482312385311
 20
12.20585607885598
 10
17.68830092866842
 20
12.20540569612573
 10
17.68830092866842
 20
14.36091211960223
 10
18.56482312385311
 20
14.36123399036181
  0
ARC
  5
103
100
AcDbEntity
  8
0
  6
ByLayer
 62
  256
370
   -1
100
AcDbCircle
 10
19.16479637918796
 20
-100.8730904855629
 40
115.2369587956651
100
AcDbArc
 50
82.15716523437132
 51
90.38707221287754
  0
ARC
  5
104
100
AcDbEntity
  8
0
  6
ByLayer
 62
  256
370
   -1
100
AcDbCircle
 10
19.16479637918796
 20
127.4403090667514
 40
115.2369587956651
100
AcDbArc
 50
269.6129277871225
 51
276.889406355131
  0
LWPOLYLINE
  5
105
100
AcDbEntity
  8
Hardware
  6
ByLayer
 62
  256
370
   -1
100
AcDbPolyline
 90
    2
 70
    0
 43
0
 10
17.31913486902264
 20
13.78360929059424
 10
17.25663486902264
 20
13.78360929059424
  0
MTEXT
  5
106
100
AcDbEntity
  8
0
  6
ByLayer
 62
  256
370
   -1
100
AcDbMText
 10
21.1370127086881
 20
4.987504313070914
 30
0
 40
0.125
 41
1.152777842063689
 71
    1
 72
    1
  1
1/4" sq. foam
  7
iso
210
0
220
0
230
1
 50
0
 73
    2
 44
1
  0
MTEXT
  5
107
100
AcDbEntity
  8
0
  6
ByLayer
 62
  256
370
   -1
100
AcDbMText
 10
24.71892153395132
 20
4.879398654343044
 30
0
 40
0.0625
 41
0.6875000321429586
 71
    1
 72
    1
  1
1/8" foam sheet
  7
iso
210
0
220
0
230
1
 50
0
 73
    2
 44
1
  0
LWPOLYLINE
  5
108
100
AcDbEntity
  8
0
  6
ByLayer
 62
  256
370
   -1
100
AcDbPolyline
 90
   41
 70
    0
 43
0
 10
18.53553998018327
 20
14.57338693779296
 10
18.47548746977383
 20
14.57234511047796
 10
18.41612530420256
 20
14.56903903459033
 10
18.35746625927643
 20
14.56350174497542
 10
18.2995231108024
 20
14.55576627647842
 10
18.24230863458748
 20
14.54586566394466
 10
18.18583560643862
 20
14.53383294221946
 10
18.13011680216281
 20
14.51970114614801
 10
18.07516499756704
 20
14.50350331057565
 10
18.02099296845826
 20
14.48527247034765
 10
17.96761349064347
 20
14.46504166030928
 10
17.91503933992963
 20
14.44284391530583
 10
17.86328329212374
 20
14.41871227018254
 10
17.81235812303276
 20
14.39267975978475
 10
17.76227660846367
 20
14.36477941895773
 10
17.71305152422346
 20
14.33504428254674
 10
17.66469564611909
 20
14.30350738539707
 10
17.61722174995756
 20
14.27020176235397
 10
17.57064261154582
 20
14.23516044826279
 10
17.52497100669087
 20
14.19841647796873
 10
17.48021971119968
 20
14.16000288631713
 10
17.44452238972203
 20
14.12602397628234
 10
17.41220990986859
 20
14.09050142550548
 10
17.38310544809119
 20
14.0535198985507
 10
17.35703218084167
 20
14.01516405998214
 10
17.33381328457187
 20
13.97551857436393
 10
17.31327193573363
 20
13.93466810626016
 10
17.29523131077877
 20
13.89269732023497
 10
17.27951458615915
 20
13.84969088085249
 10
17.26594493832658
 20
13.80573345267686
 10
17.2543455437329
 20
13.76090970027223
 10
17.24453957882996
 20
13.71530428820268
 10
17.2363502200696
 20
13.6690018810324
 10
17.22960064390363
 20
13.62208714332544
 10
17.22411402678392
 20
13.57464473964601
 10
17.21971354516227
 20
13.52675933455819
 10
17.21622237549055
 20
13.47851559262612
 10
17.21346369422057
 20
13.42999817841394
 10
17.21126067780418
 20
13.38129175648579
 10
17.20943650269322
 20
13.33248099140574
 10
17.2078143453395
 20
13.28365054773796
  0
MTEXT
  5
109
100
AcDbEntity
  8
0
  6
ByLayer
 62
  256
370
   -1
100
AcDbMText
 10
17.80267591418804
 20
12.49462948170414
 30
0
 40
0.1
 41
2.138888888888915
 71
    1
 72
    5
  1
{1/32" ply bolt reinforcement }
  7
standard
210
0
220
0
230
1
 50
90
 73
    1
 44
1
  0
LINE
  5
10A
100
AcDbEntity
  8
0
  6
ByLayer
 62
  256
370
   -1
100
AcDbLine
 10
4.704838918588809
 20
12.20585607885598
 11
4.704838918588808
 21
14.3613468434852
  0
LINE
  5
10B
100
AcDbEntity
  8
0
  6
ByLayer
 62
  256
370
   -1
100
AcDbLine
 10
5.204838918588815
 20
7.457998237149513
 11
5.204838918588815
 21
7.717095182604165
  0
LINE
  5
10C
100
AcDbEntity
  8
0
  6
ByLayer
 62
  256
370
   -1
100
AcDbLine
 10
5.204838918588815
 20
11.95585607885598
 11
5.204838918588815
 21
14.61134268063739
  0
LINE
  5
10D
100
AcDbEntity
  8
0
  6
ByLayer
 62
  256
370
   -1
100
AcDbLine
 10
10.06081461431024
 20
12.20585607885598
 11
10.06222320835874
 21
14.3613022394415
  0
LINE
  5
10E
100
AcDbEntity
  8
0
  6
ByLayer
 62
  256
370
   -1
100
AcDbLine
 10
9.935271660833871
 20
14.36130329640364
 11
9.935271660833871
 21
12.20585607885598
  0
LINE
  5
10F
100
AcDbEntity
  8
0
  6
ByLayer
 62
  256
370
   -1
100
AcDbLine
 10
31.06926604481011
 20
13.28364800955925
 11
35.25120415661935
 21
13.28364800955925
  0
LINE
  5
110
100
AcDbEntity
  8
0
  6
ByLayer
 62
  256
370
   -1
100
AcDbLine
 10
31.06926604481011
 20
13.28364800955925
 11
35.25120415661935
 21
13.28364800955925
  0
LINE
  5
111
100
AcDbEntity
  8
0
  6
ByLayer
 62
  256
370
   -1
100
AcDbLine
 10
35.00120415636018
 20
13.28364800955925
 11
35.00085651455704
 21
20.91846057398504
  0
SPLINE
  5
112
100
AcDbEntity
  8
0
  6
ByLayer
 62
  256
370
   -1
100
AcDbSpline
210
0
220
0
230
0
 70
    8
 71
    3
 72
   12
 73
    8
 74
    0
 42
1e-07
 43
1e-07
 40
0
 40
0
 40
0
 40
0
 40
0.2
 40
0.4
 40
0.6000000000000001
 40
0.8
 40
1
 40
1
 40
1
 40
1
 10
31.06931462093953
 20
13.2836150311932
 30
0
 10
31.5044597182207
 20
18.97550731883036
 30
0
 10
32.96229432355824
 20
21.07958504911182
 30
0
 10
34.20904918999661
 20
21.2903041814676
 30
0
 10
35.38556434564971
 20
20.95666555523761
 30
0
 10
37.08715104450209
 20
17.38627402156776
 30
0
 10
36.72011885056965
 20
14.14341360906739
 30
0
 10
35.25120415661935
 20
13.53364800955925
 30
0
  0
LWPOLYLINE
  5
113
100
AcDbEntity
  8
Hardware
  6
ByLayer
 62
  256
370
   -1
100
AcDbPolyline
 90
    3
 70
    1
 43
0
 10
2.81220774199802
 20
9.860575791336659
 10
2.740337643997773
 20
6.370860470804174
 10
2.933835323590341
 20
6.377617558670414
  0
LWPOLYLINE
  5
114
100
AcDbEntity
  8
Hardware
  6
ByLayer
 62
  256
370
   -1
100
AcDbPolyline
 90
    3
 70
    1
 43
0
 10
3.055462905182666
 20
2.894659326004168
 10
2.740337643997773
 20
6.370860470804174
 10
2.933835323590341
 20
6.377617558670414
  0
LINE
  5
115
100
AcDbEntity
  8
0
  6
ByLayer
 62
  256
370
   -1
100
AcDbLine
 10
35.00115599471978
 20
14.57442686958218
 11
35.00115599471978
 21
14.07442686958218
  0
LINE
  5
116
100
AcDbEntity
  8
0
  6
ByLayer
 62
  256
370
   -1
100
AcDbLine
 10
35.25120415636019
 20
13.28788043993747
 11
35.25120415636019
 21
14.78788043993747
  0
LINE
  5
117
100
AcDbEntity
  8
0
  6
ByLayer
 62
  256
370
   -1
100
AcDbLine
 10
35.00120415636019
 20
14.78788043993747
 11
35.00120415636019
 21
13.28788043993747
  0
LINE
  5
118
100
AcDbEntity
  8
0
  6
ByLayer
 62
  256
370
   -1
100
AcDbLine
 10
35.50120415636019
 20
14.78788043993747
 11
35.00120415636019
 21
14.78788043993747
  0
LINE
  5
119
100
AcDbEntity
  8
0
  6
ByLayer
 62
  256
370
   -1
100
AcDbLine
 10
35.50120415636019
 20
13.65831981742983
 11
35.50120415636019
 21
14.78788043993747
  0
LWPOLYLINE
  5
11A
100
AcDbEntity
  8
0
  6
ByLayer
 62
  256
370
   -1
100
AcDbPolyline
 90
    4
 70
    1
 43
0
 10
35.0012
 20
7.467095182604166
 10
35.2512
 20
7.467095182604166
 10
35.2512
 20
7.717095182604165
 10
35.0012
 20
7.717095182604165
  0
LINE
  5
11B
100
AcDbEntity
  8
0
  6
ByLayer
 62
  256
370
   -1
100
AcDbLine
 10
35.5012
 20
7.467095182604166
 11
35.5012
 21
7.717095182604165
  0
LINE
  5
11C
100
AcDbEntity
  8
0
  6
ByLayer
 62
  256
370
   -1
100
AcDbLine
 10
34.99817602409296
 20
7.717320788495527
 11
35.37423874861769
 21
8.093383513020255
  0
LINE
  5
11D
100
AcDbEntity
  8
0
  6
ByLayer
 62
  256
370
   -1
100
AcDbLine
 10
34.99817602409296
 20
7.449923616404309
 11
35.37423874861769
 21
7.073860891879587
  0
ARC
  5
11E
100
AcDbEntity
  8
0
  6
ByLayer
 62
  256
370
   -1
100
AcDbCircle
 10
34.82410839475097
 20
7.583622202449918
 40
0.75
100
AcDbArc
 50
317.1812213317239
 51
42.81877866827702
  0
MTEXT
  5
11F
100
AcDbEntity
  8
0
  6
ByLayer
 62
  256
370
   -1
100
AcDbMText
 10
35.19312493537564
 20
8.670929182728901
 30
0
 40
0.0625
 41
0.7951389210318504
 71
    1
 72
    1
  1
CA hinges glued \Pinto bare foam\Pwith foam-safe CA
  7
iso
210
0
220
0
230
1
 50
90
 73
    2
 44
1
  0
SPLINE
  5
120
100
AcDbEntity
  8
0
  6
ByLayer
 62
  256
370
   -1
100
AcDbSpline
210
0
220
0
230
0
 70
    8
 71
    3
 72
   19
 73
   15
 74
    0
 42
1e-07
 43
1e-07
 40
0
 40
0
 40
0
 40
0
 40
0.08333333333333333
 40
0.1666666666666667
 40
0.25
 40
0.3333333333333333
 40
0.4166666666666666
 40
0.5
 40
0.5833333333333333
 40
0.6666666666666666
 40
0.75
 40
0.8333333333333333
 40
0.9166666666666666
 40
1
 40
1
 40
1
 40
1
 10
30.41903205344236
 20
7.709004973015302
 30
0
 10
31.34557518722707
 20
8.103399321730071
 30
0
 10
32.18391856531518
 20
8.686872077478611
 30
0
 10
33.11822660666
 20
10.29074198129436
 30
0
 10
33.47546636066585
 20
11.02623559248287
 30
0
 10
34.18257152640122
 20
11.69816015540676
 30
0
 10
35.01471315504153
 20
11.94481263385434
 30
0
 10
35.95513053552999
 20
11.64615163619891
 30
0
 10
36.70113119830691
 20
10.82660161230313
 30
0
 10
37.28755774777748
 20
9.498794915265238
 30
0
 10
37.51858350829642
 20
8.288219930145294
 30
0
 10
37.45389629535108
 20
7.243983492599114
 30
0
 10
37.13970126104515
 20
6.421531785151236
 30
0
 10
36.23536496086327
 20
6.113890262618982
 30
0
 10
34.99895842849293
 20
5.954631799435471
 30
0
  0
LINE
  5
121
100
AcDbEntity
  8
0
  6
ByLayer
 62
  256
370
   -1
100
AcDbLine
 10
9.90876028267623
 20
13.28360929059424
 11
18.56477856898627
 21
13.28360929059424
  0
LINE
  5
122
100
AcDbEntity
  8
0
  6
ByLayer
 62
  256
370
   -1
100
AcDbLine
 10
10.5585914542816
 20
13.2836150311932
 11
10.55918692869443
 21
34.16638022841572
  0
LINE
  5
123
100
AcDbEntity
  8
CG
  6
ByLayer
 62
  256
370
   -1
100
AcDbLine
 10
12.97126828717321
 20
5.07825992530061
 11
12.97126828717321
 21
5.299534925300612
  0
LWPOLYLINE
  5
124
100
AcDbEntity
  8
CG
  6
ByLayer
 62
  256
370
   -1
100
AcDbPolyline
 90
    2
 70
    1
 43
0
 10
12.97126828717321
 20
5.299534925300612
 10
13.19254328717321
 20
5.299534925300612
  0
ARC
  5
125
100
AcDbEntity
  8
CG
  6
ByLayer
 62
  256
370
   -1
100
AcDbCircle
 10
12.97126828717321
 20
5.299534925300612
 40
0.221275
100
AcDbArc
 50
270
 51
0
  0
LINE
  5
126
100
AcDbEntity
  8
CG
  6
ByLayer
 62
  256
370
   -1
100
AcDbLine
 10
12.97126828717321
 20
5.299534925300612
 11
12.74999328717321
 21
5.299534925300612
  0
ARC
  5
127
100
AcDbEntity
  8
CG
  6
ByLayer
 62
  256
370
   -1
100
AcDbCircle
 10
12.97126828717321
 20
5.299534925300612
 40
0.221275
100
AcDbArc
 50
90
 51
180
  0
LINE
  5
128
100
AcDbEntity
  8
CG
  6
ByLayer
 62
  256
370
   -1
100
AcDbLine
 10
12.97126828717321
 20
5.07825992530061
 11
12.97126828717321
 21
5.299534925300612
  0
LINE
  5
129
100
AcDbEntity
  8
CG
  6
ByLayer
 62
  256
370
   -1
100
AcDbLine
 10
12.97126828717321
 20
5.299534925300612
 11
12.74999328717321
 21
5.299534925300612
  0
LWPOLYLINE
  5
12A
100
AcDbEntity
  8
CG
  6
ByLayer
 62
  256
370
   -1
100
AcDbPolyline
 90
   34
 70
    1
 43
0
 10
12.74999351768659
 20
5.299984534339037
 10
12.97126851768659
 20
5.299984534339037
 10
12.97126851768659
 20
5.078709534339036
 10
12.9600611225402
 20
5.078993539230566
 10
12.94888249661801
 20
5.079844824868625
 10
12.93776133529404
 20
5.081261206015074
 10
12.92672618643149
 20
5.083239046839615
 10
12.91580537710081
 20
5.085773270252939
 10
12.90502694086447
 20
5.088857370939539
 10
12.89441854581526
 20
5.092483432056723
 10
12.88400742355261
 20
5.096642145557108
 10
12.87382029927958
 20
5.101322836082182
 10
12.8638833231995
 20
5.106513488365819
 10
12.85422200338887
 20
5.112200778077333
 10
12.84486114031848
 20
5.118370106024775
 10
12.8358247631909
 20
5.125005635630911
 10
12.8271360682579
 20
5.132090333585459
 10
12.818817359276
 20
5.139606013569352
 10
12.81088999025306
 20
5.14753338293882
 10
12.80337431063278
 20
5.155852092249225
 10
12.79628961305803
 20
5.164540787491904
 10
12.78965408384688
 20
5.173577164909545
 10
12.78348475630863
 20
5.182938028249608
 10
12.77779746701942
 20
5.192599348308828
 10
12.77260681517014
 20
5.202536324615799
 10
12.76792612509036
 20
5.212723449093445
 10
12.76376741204506
 20
5.223134571537861
 10
12.76014135139158
 20
5.23374296674558
 10
12.75705725117613
 20
5.244521403116727
 10
12.75452302824017
 20
5.255442212558175
 10
12.75254518789798
 20
5.266477361507188
 10
12.75112880723766
 20
5.277598522893061
 10
12.75027752208823
 20
5.288777148852463
 10
12.74999351768659
 20
5.29998454401127
  0
LWPOLYLINE
  5
12B
100
AcDbEntity
  8
CG
  6
ByLayer
 62
  256
370
   -1
100
AcDbPolyline
 90
    2
 70
    1
 43
0
 10
12.97126851768659
 20
5.299984534339037
 10
12.97126851768659
 20
5.078709534339036
  0
ARC
  5
12C
100
AcDbEntity
  8
CG
  6
ByLayer
 62
  256
370
   -1
100
AcDbCircle
 10
12.97126828717321
 20
5.299534925300612
 40
0.221275
100
AcDbArc
 50
180
 51
270
  0
LWPOLYLINE
  5
12D
100
AcDbEntity
  8
0
  6
ByLayer
 62
  256
370
   -1
100
AcDbPolyline
 90
    4
 70
    1
 43
0
 10
15.83974628332583
 20
7.00733302605224
 10
15.83974628332583
 20
6.88233302605224
 10
16.08974628332583
 20
6.88233302605224
 10
16.08974628332583
 20
7.00733302605224
  0
LWPOLYLINE
  5
12E
100
AcDbEntity
  8
0
  6
ByLayer
 62
  256
370
   -1
100
AcDbPolyline
 90
    4
 70
    1
 43
0
 10
17.00922107980444
 20
7.00733302605224
 10
17.00922107980444
 20
6.88233302605224
 10
17.25922107980444
 20
6.88233302605224
 10
17.25922107980444
 20
7.00733302605224
  0
LINE
  5
12F
100
AcDbEntity
  8
0
  6
ByLayer
 62
  256
370
   -1
100
AcDbLine
 10
15.58974628332583
 20
6.882333014530756
 11
15.58974628332583
 21
6.757333014530754
  0
LINE
  5
130
100
AcDbEntity
  8
0
  6
ByLayer
 62
  256
370
   -1
100
AcDbLine
 10
15.33974628332583
 20
6.757333014530756
 11
15.33974628332583
 21
7.217095182604165
  0
ARC
  5
131
100
AcDbEntity
  8
0
  6
ByLayer
 62
  256
370
   -1
100
AcDbCircle
 10
15.58974628332583
 20
6.757333014530756
 40
0.25
100
AcDbArc
 50
180
 51
269.9999996653959
  0
LINE
  5
132
100
AcDbEntity
  8
0
  6
ByLayer
 62
  256
370
   -1
100
AcDbLine
 10
10.18634093274023
 20
7.213274853805998
 11
10.18634093274023
 21
4.631793303499031
  0
LINE
  5
133
100
AcDbEntity
  8
0
  6
ByLayer
 62
  256
370
   -1
100
AcDbLine
 10
10.55676372713428
 20
4.37475246539859
 11
10.55878708402417
 21
7.470915511402333
  0
LINE
  5
134
100
AcDbEntity
  8
0
  6
ByLayer
 62
  256
370
   -1
100
AcDbLine
 10
10.43634093274023
 20
7.470915511402333
 11
10.43634093274023
 21
4.376438357217403
  0
ARC
  5
135
100
AcDbEntity
  8
0
  6
ByLayer
 62
  256
370
   -1
100
AcDbCircle
 10
10.34507458117969
 20
29.59300256243651
 40
24.97374705986695
100
AcDbArc
 50
256.6527712180588
 51
270.4898650049736
  0
ARC
  5
136
100
AcDbEntity
  8
0
  6
ByLayer
 62
  256
370
   -1
100
AcDbCircle
 10
10.40028885543205
 20
29.84300256243651
 40
24.97374705986695
100
AcDbArc
 50
257.4053180589148
 51
270.3631866503033
  0
LINE
  5
137
100
AcDbEntity
  8
0
  6
ByLayer
 62
  256
370
   -1
100
AcDbLine
 10
10.55603261236041
 20
7.467095182604165
 11
10.4335914542816
 21
7.467095182604165
  0
LINE
  5
138
100
AcDbEntity
  8
0
  6
ByLayer
 62
  256
370
   -1
100
AcDbLine
 10
10.4335914542816
 20
7.467095182604165
 11
10.4335914542816
 21
7.467095182604165
  0
LINE
  5
139
100
AcDbEntity
  8
0
  6
ByLayer
 62
  256
370
   -1
100
AcDbLine
 10
18.31482312383741
 20
5.622875000038531
 11
10.80757943437465
 21
5.622875000038531
  0
LINE
  5
13A
100
AcDbEntity
  8
CG
  6
ByLayer
 62
  256
370
   -1
100
AcDbLine
 10
12.97126828717321
 20
5.520809925300613
 11
12.97126828717321
 21
5.299534925300611
  0
LINE
  5
13B
100
AcDbEntity
  8
CG
  6
ByLayer
 62
  256
370
   -1
100
AcDbLine
 10
12.97126828717321
 20
5.299534925300611
 11
13.19254328717321
 21
5.299534925300611
  0
LINE
  5
13C
100
AcDbEntity
  8
CG
  6
ByLayer
 62
  256
370
   -1
100
AcDbLine
 10
12.97126828717321
 20
5.299534925300611
 11
13.19254328717321
 21
5.299534925300611
  0
LWPOLYLINE
  5
13D
100
AcDbEntity
  8
CG
  6
ByLayer
 62
  256
370
   -1
100
AcDbPolyline
 90
   34
 70
    1
 43
0
 10
12.97126828717321
 20
5.520809925300613
 10
12.97126828717321
 20
5.299534925300611
 10
13.19254328717321
 20
5.299534925300611
 10
13.1922592822817
 20
5.310742320447
 10
13.19140799664363
 20
5.321920946369191
 10
13.18999161549718
 20
5.333042107693162
 10
13.18801377467264
 20
5.344077256555709
 10
13.18547955125931
 20
5.354998065886397
 10
13.18239545057271
 20
5.365776502122726
 10
13.17876938945553
 20
5.376384897171946
 10
13.17461067595514
 20
5.386796019434583
 10
13.16992998543007
 20
5.396983143707621
 10
13.16473933314643
 20
5.406920119787694
 10
13.15905204343492
 20
5.416581439598326
 10
13.15288271548747
 20
5.425942302668718
 10
13.14624718588135
 20
5.434978679796311
 10
13.1391624879268
 20
5.443667374729303
 10
13.1316468079429
 20
5.451986083711192
 10
13.12371943857343
 20
5.459913452734137
 10
13.11540072926303
 20
5.46742913235442
 10
13.10671203402035
 20
5.474513829929171
 10
13.09767565660272
 20
5.481149359140302
 10
13.08831479326264
 20
5.487318686678575
 10
13.07865347320342
 20
5.493005975967775
 10
13.06871649689645
 20
5.498196627817057
 10
13.05852937241882
 20
5.502877317896838
 10
13.04811824997439
 20
5.507036030942137
 10
13.03750985476668
 20
5.510662091595618
 10
13.02673141839552
 20
5.513746191811072
 10
13.01581060895407
 20
5.516280414747035
 10
13.00477546000507
 20
5.518258255089213
 10
12.99365429861919
 20
5.519674635749537
 10
12.98247567265979
 20
5.520525920898971
 10
12.97126827750098
 20
5.520809925300613
  0
LINE
  5
13E
100
AcDbEntity
  8
CG
  6
ByLayer
 62
  256
370
   -1
100
AcDbLine
 10
12.97126828717321
 20
5.520809925300613
 11
12.97126828717321
 21
5.299534925300611
  0
SPLINE
  5
13F
100
AcDbEntity
  8
0
  6
ByLayer
 62
  256
370
   -1
100
AcDbSpline
210
0
220
0
230
0
 70
    8
 71
    3
 72
   10
 73
    6
 74
    0
 42
1e-07
 43
1e-07
 40
0
 40
0
 40
0
 40
0
 40
0.3333333333333333
 40
0.6666666666666666
 40
1
 40
1
 40
1
 40
1
 10
10.55918692869443
 20
34.16638022841572
 30
0
 10
10.822705340752
 20
35.58446598175682
 30
0
 10
13.26323711228766
 20
35.85883760801205
 30
0
 10
15.95265534406177
 20
35.29570569638999
 30
0
 10
18.57504767055916
 20
33.94401034537056
 30
0
 10
18.57510291997212
 20
33.94401034537056
 30
0
  0
LINE
  5
140
100
AcDbEntity
  8
0
  6
ByLayer
 62
  256
370
   -1
100
AcDbLine
 10
18.93982312383741
 20
4.759878120960739
 11
18.93982312383741
 21
7.217095182604165
  0
LINE
  5
141
100
AcDbEntity
  8
Reference Lines
  6
ByLayer
 62
  256
370
   -1
100
AcDbLine
 10
4.704838918588806
 20
18.2836150311932
 11
4.704838918588817
 21
2.425361186441656
  0
LINE
  5
142
100
AcDbEntity
  8
Reference Lines
  6
ByLayer
 62
  256
370
   -1
100
AcDbLine
 10
18.68982312385059
 20
18.2836150311932
 11
18.68982312385059
 21
2.425355715582932
  0
LINE
  5
143
100
AcDbEntity
  8
Reference Lines
  6
ByLayer
 62
  256
370
   -1
100
AcDbLine
 10
18.56482312385059
 20
18.2836150311932
 11
18.56482312385059
 21
2.425355715582932
  0
LINE
  5
144
100
AcDbEntity
  8
Reference Lines
  6
ByLayer
 62
  256
370
   -1
100
AcDbLine
 10
31.06931462093953
 20
18.2836150311932
 11
31.06931462093953
 21
2.425361186441653
  0
LINE
  5
145
100
AcDbEntity
  8
Reference Lines
  6
ByLayer
 62
  256
370
   -1
100
AcDbLine
 10
30.94431462093953
 20
18.2836150311932
 11
30.94431462093953
 21
2.425361186441653
  0
LINE
  5
146
100
AcDbEntity
  8
Reference Lines
  6
ByLayer
 62
  256
370
   -1
100
AcDbLine
 10
18.26392059477028
 20
16.78552161773433
 11
18.26392059477028
 21
16.72302161773433
  0
LINE
  5
147
100
AcDbEntity
  8
Reference Lines
  6
ByLayer
 62
  256
370
   -1
100
AcDbLine
 10
10.55859145428161
 20
18.2836150311932
 11
10.5585914542816
 21
2.425361186441655
  0
LINE
  5
148
100
AcDbEntity
  8
Reference Lines
  6
ByLayer
 62
  256
370
   -1
100
AcDbLine
 10
10.43359145428161
 20
18.2836150311932
 11
10.4335914542816
 21
2.425361186441655
  0
LINE
  5
149
100
AcDbEntity
  8
0
  6
ByLayer
 62
  256
370
   -1
100
AcDbLine
 10
18.56492292691037
 20
18.3461150311932
 11
18.56536737837171
 21
33.93263782539456
  0
LINE
  5
14A
100
AcDbEntity
  8
0
  6
ByLayer
 62
  256
370
   -1
100
AcDbLine
 10
18.56477856898627
 20
13.28360929059424
 11
18.5649211447158
 21
18.2836150311932
  0
LINE
  5
14B
100
AcDbEntity
  8
0
  6
ByLayer
 62
  256
370
   -1
100
AcDbLine
 10
16.68992292614807
 20
18.3461150311932
 11
18.56492292691036
 21
18.3461150311932
  0
LINE
  5
14C
100
AcDbEntity
  8
0
  6
ByLayer
 62
  256
370
   -1
100
AcDbLine
 10
16.6899211439535
 20
18.2836150311932
 11
18.56492114471579
 21
18.2836150311932
  0
LINE
  5
14D
100
AcDbEntity
  8
0
  6
ByLayer
 62
  256
370
   -1
100
AcDbLine
 10
16.6899211439535
 20
18.2836150311932
 11
16.6903930599073
 21
34.83329347863427
  0
LINE
  5
14E
100
AcDbEntity
  8
0
  6
ByLayer
 62
  256
370
   -1
100
AcDbLine
 10
15.58974628332583
 20
6.757333014530754
 11
18.68982312383741
 21
6.757332996426474
  0
LINE
  5
14F
100
AcDbEntity
  8
0
  6
ByLayer
 62
  256
370
   -1
100
AcDbLine
 10
18.68982312383741
 20
6.882332996426475
 11
15.58974628332583
 21
6.882333014530756
  0
LINE
  5
150
100
AcDbEntity
  8
Bulkheads
  6
ByLayer
 62
  256
370
   -1
100
AcDbLine
 10
15.4807240727586
 20
13.78012923540861
 11
15.4807240727586
 21
13.78012923540861
  0
LINE
  5
151
100
AcDbEntity
  8
0
  6
ByLayer
 62
  256
370
   -1
100
AcDbLine
 10
9.658758365225131
 20
13.28426065877688
 11
9.658758365225131
 21
13.28386938719906
  0
LINE
  5
152
100
AcDbEntity
  8
0
  6
ByLayer
 62
  256
370
   -1
100
AcDbLine
 10
11.58165483634073
 20
18.2836150311932
 11
12.67720853527348
 21
18.2836150311932
  0
MTEXT
  5
153
100
AcDbEntity
  8
0
  6
ByLayer
 62
  256
370
   -1
100
AcDbMText
 10
15.28957753196344
 20
27.66698211799043
 30
0
 40
0.1
 41
0
 71
    3
 72
    5
  1

  7
standard
210
0
220
0
230
1
 50
90
 73
    1
 44
1
  0
LWPOLYLINE
  5
154
100
AcDbEntity
  8
Bulkheads
  6
ByLayer
 62
  256
370
   -1
100
AcDbPolyline
 90
    4
 70
    1
 43
0
 10
4.579838918588814
 20
7.713951794695273
 10
4.704838918588815
 20
7.713951794695273
 10
4.704838918588815
 20
5.014505200687033
 10
4.579838918588814
 20
5.014505200687033
  0
LINE
  5
155
100
AcDbEntity
  8
Bulkheads
  6
ByLayer
 62
  256
370
   -1
100
AcDbLine
 10
4.579823294558016
 20
5.293827271651016
 11
4.579838918588814
 21
5.272032282887081
  0
LINE
  5
156
100
AcDbEntity
  8
Bulkheads
  6
ByLayer
 62
  256
370
   -1
100
AcDbLine
 10
4.579838918588814
 20
7.466238788546382
 11
4.704838918588815
 21
7.467095182604165
  0
LINE
  5
157
100
AcDbEntity
  8
Reference Lines
  6
ByLayer
 62
  256
370
   -1
100
AcDbLine
 10
3.07405840812006
 20
14.95628971694283
 11
3.074058408120063
 21
6.518575862762918
  0
LINE
  5
158
100
AcDbEntity
  8
0
  6
ByLayer
 62
  256
370
   -1
100
AcDbLine
 10
3.351225322704842
 20
7.217095182604165
 11
35.0012
 21
7.217095182604165
  0
LINE
  5
159
100
AcDbEntity
  8
Bulkheads
  6
ByLayer
 62
  256
370
   -1
100
AcDbLine
 10
4.57826597214703
 20
7.466238788546382
 11
4.704838918588815
 21
7.467095182604165
  0
LINE
  5
15A
100
AcDbEntity
  8
Bulkheads
  6
ByLayer
 62
  256
370
   -1
100
AcDbLine
 10
4.578444574091491
 20
7.217095182604165
 11
4.704838918588815
 21
7.217095182604165
  0
LINE
  5
15B
100
AcDbEntity
  8
Bulkheads
  6
ByLayer
 62
  256
370
   -1
100
AcDbLine
 10
4.576758441306024
 20
6.46161
 11
4.703986153804584
 21
6.46161
  0
LINE
  5
15C
100
AcDbEntity
  8
Bulkheads
  6
ByLayer
 62
  256
370
   -1
100
AcDbLine
 10
4.579838918588814
 20
5.272032282887081
 11
4.704838918588815
 21
5.264505200687035
  0
LINE
  5
15D
100
AcDbEntity
  8
Reference Lines
  6
ByLayer
 62
  256
370
   -1
100
AcDbLine
 10
4.579838918588809
 20
14.61134788420797
 11
4.579838918588817
 21
2.425361186441656
  0
MTEXT
  5
15E
100
AcDbEntity
  8
Bulkheads
  6
ByLayer
 62
  256
370
   -1
100
AcDbMText
 10
4.795732071775441
 20
4.789348995818974
 30
0
 40
0.25
 41
0.2777777777777778
 71
    1
 72
    1
  1
P1
  7
standard
210
0
220
0
230
1
 50
0
 73
    2
 44
1
  0
ARC
  5
15F
100
AcDbEntity
  8
Hardware
  6
ByLayer
 62
  256
370
   -1
100
AcDbCircle
 10
9.558734321950221
 20
18.54385881963428
 40
0.25
100
AcDbArc
 50
90
 51
180
  0
LINE
  5
160
100
AcDbEntity
  8
Hardware
  6
ByLayer
 62
  256
370
   -1
100
AcDbLine
 10
9.308734321950221
 20
18.54385881963428
 11
9.308734321950221
 21
18.54385881963428
  0
ARC
  5
161
100
AcDbEntity
  8
Hardware
  6
ByLayer
 62
  256
370
   -1
100
AcDbCircle
 10
9.558734321950221
 20
18.54385881963428
 40
0.25
100
AcDbArc
 50
180
 51
270
  0
LINE
  5
162
100
AcDbEntity
  8
Hardware
  6
ByLayer
 62
  256
370
   -1
100
AcDbLine
 10
9.558734321950221
 20
18.29385881963428
 11
11.55873432195022
 21
18.29385881963428
  0
ARC
  5
163
100
AcDbEntity
  8
Hardware
  6
ByLayer
 62
  256
370
   -1
100
AcDbCircle
 10
11.55873432195022
 20
18.54385881963428
 40
0.25
100
AcDbArc
 50
270
 51
0
  0
LINE
  5
164
100
AcDbEntity
  8
Hardware
  6
ByLayer
 62
  256
370
   -1
100
AcDbLine
 10
11.80873432195022
 20
18.54385881963428
 11
11.80873432195022
 21
18.54385881963428
  0
LINE
  5
165
100
AcDbEntity
  8
Hardware
  6
ByLayer
 62
  256
370
   -1
100
AcDbLine
 10
11.55873432195022
 20
18.79385881963428
 11
9.558734321950221
 21
18.79385881963428
  0
ARC
  5
166
100
AcDbEntity
  8
Hardware
  6
ByLayer
 62
  256
370
   -1
100
AcDbCircle
 10
11.55873432195022
 20
18.54385881963428
 40
0.25
100
AcDbArc
 50
0
 51
90
  0
TEXT
  5
167
100
AcDbEntity
  8
0
  6
ByLayer
 62
  256
370
   -1
100
AcDbText
 10
35.21509619823682
 20
1.858751917929324
 30
0
 40
0.110637
  1
44.8 In.
 50
0
 41
1
 51
0
  7
standard
 71
    0
 11
35.21509619823682
 21
1.858751917929324
 31
0
210
0
220
0
230
1
100
AcDbText
 73
    3
  0
LINE
  5
168
100
AcDbEntity
  8
Bulkheads
  6
ByLayer
 62
  256
370
   -1
100
AcDbLine
 10
10.4335914542816
 20
7.717095182604165
 11
10.5585914542816
 21
7.717095182604165
  0
LINE
  5
169
100
AcDbEntity
  8
Bulkheads
  6
ByLayer
 62
  256
370
   -1
100
AcDbLine
 10
10.5585914542816
 20
7.717095182604165
 11
10.5585914542816
 21
4.370168266844143
  0
LINE
  5
16A
100
AcDbEntity
  8
Bulkheads
  6
ByLayer
 62
  256
370
   -1
100
AcDbLine
 10
10.5585914542816
 20
4.370168266844143
 11
10.4335914542816
 21
4.370168266844143
  0
LINE
  5
16B
100
AcDbEntity
  8
Bulkheads
  6
ByLayer
 62
  256
370
   -1
100
AcDbLine
 10
10.4335914542816
 20
4.370168266844143
 11
10.4335914542816
 21
7.717095182604165
  0
LINE
  5
16C
100
AcDbEntity
  8
Bulkheads
  6
ByLayer
 62
  256
370
   -1
100
AcDbLine
 10
10.5585914542816
 20
4.620168266844143
 11
10.4335914542816
 21
4.620168266844143
  0
LINE
  5
16D
100
AcDbEntity
  8
Bulkheads
  6
ByLayer
 62
  256
370
   -1
100
AcDbLine
 10
10.5585914542816
 20
4.870168266844143
 11
10.4335914542816
 21
4.870168266844143
  0
LINE
  5
16E
100
AcDbEntity
  8
Bulkheads
  6
ByLayer
 62
  256
370
   -1
100
AcDbLine
 10
10.4335914542816
 20
7.467095182604165
 11
10.5585914542816
 21
7.467095182604165
  0
LINE
  5
16F
100
AcDbEntity
  8
Bulkheads
  6
ByLayer
 62
  256
370
   -1
100
AcDbLine
 10
10.4335914542816
 20
7.467095182604165
 11
10.5585914542816
 21
7.467095182604165
  0
LINE
  5
170
100
AcDbEntity
  8
Bulkheads
  6
ByLayer
 62
  256
370
   -1
100
AcDbLine
 10
10.4335914542816
 20
7.217095182604165
 11
10.5585914542816
 21
7.217095182604165
  0
LINE
  5
171
100
AcDbEntity
  8
Bulkheads
  6
ByLayer
 62
  256
370
   -1
100
AcDbLine
 10
10.4335914542816
 20
6.46161
 11
10.5585914542816
 21
6.46161
  0
LINE
  5
172
100
AcDbEntity
  8
0
  6
ByLayer
 62
  256
370
   -1
100
AcDbLine
 10
8.255378851613564
 20
30.40016781967216
 11
8.380378851613562
 21
30.40016781967216
  0
LINE
  5
173
100
AcDbEntity
  8
0
  6
ByLayer
 62
  256
370
   -1
100
AcDbLine
 10
8.255378851613564
 20
30.65016781967216
 11
9.583063862328185
 21
30.65016781967216
  0
LINE
  5
174
100
AcDbEntity
  8
0
  6
ByLayer
 62
  256
370
   -1
100
AcDbLine
 10
8.255378851613564
 20
30.40016781967216
 11
9.583061780899952
 21
30.40016781967216
  0
LINE
  5
175
100
AcDbEntity
  8
0
  6
ByLayer
 62
  256
370
   -1
100
AcDbLine
 10
9.583038078203694
 20
27.55324090391214
 11
8.255378851613564
 21
27.55324090391214
  0
LINE
  5
176
100
AcDbEntity
  8
0
  6
ByLayer
 62
  256
370
   -1
100
AcDbLine
 10
9.583035996775461
 20
27.30324090391214
 11
8.255378851613564
 21
27.30324090391214
  0
LINE
  5
177
100
AcDbEntity
  8
0
  6
ByLayer
 62
  256
370
   -1
100
AcDbLine
 10
9.583063862328185
 20
30.65016781967216
 11
9.583035996775461
 21
27.30324090391214
  0
LINE
  5
178
100
AcDbEntity
  8
0
  6
ByLayer
 62
  256
370
   -1
100
AcDbLine
 10
8.255378851613564
 20
27.30324090391214
 11
8.255378851613564
 21
30.65016781967216
  0
LINE
  5
179
100
AcDbEntity
  8
0
  6
ByLayer
 62
  256
370
   -1
100
AcDbLine
 10
8.255378851613562
 20
29.39468263706799
 11
9.583053409518957
 21
29.39468263706799
  0
LINE
  5
17A
100
AcDbEntity
  8
0
  6
ByLayer
 62
  256
370
   -1
100
AcDbLine
 10
9.333061780891285
 20
30.40016781967216
 11
9.333038078195031
 21
27.55324090391214
  0
LINE
  5
17B
100
AcDbEntity
  8
0
  6
ByLayer
 62
  256
370
   -1
100
AcDbLine
 10
9.083059699454388
 20
30.15016781967216
 11
9.333059699463051
 21
30.15016781967216
  0
LINE
  5
17C
100
AcDbEntity
  8
0
  6
ByLayer
 62
  256
370
   -1
100
AcDbLine
 10
9.083061780882622
 20
30.40016781967216
 11
9.083059699454388
 21
30.15016781967216
  0
LINE
  5
17D
100
AcDbEntity
  8
0
  6
ByLayer
 62
  256
370
   -1
100
AcDbLine
 10
9.083040159614601
 20
27.80324090391214
 11
9.083038078186366
 21
27.55324090391214
  0
LINE
  5
17E
100
AcDbEntity
  8
0
  6
ByLayer
 62
  256
370
   -1
100
AcDbLine
 10
8.255378851613564
 20
30.40016781967216
 11
8.130378851613566
 21
30.40016781967216
  0
LINE
  5
17F
100
AcDbEntity
  8
0
  6
ByLayer
 62
  256
370
   -1
100
AcDbLine
 10
8.255378851613566
 20
29.39468263706799
 11
6.927704293708171
 21
29.39468263706799
  0
LINE
  5
180
100
AcDbEntity
  8
0
  6
ByLayer
 62
  256
370
   -1
100
AcDbLine
 10
7.177695922335843
 20
30.40016781967216
 11
7.177719625032097
 21
27.55324090391214
  0
LINE
  5
181
100
AcDbEntity
  8
0
  6
ByLayer
 62
  256
370
   -1
100
AcDbLine
 10
7.42769800377274
 20
30.15016781967216
 11
7.177698003764077
 21
30.15016781967216
  0
LINE
  5
182
100
AcDbEntity
  8
0
  6
ByLayer
 62
  256
370
   -1
100
AcDbLine
 10
7.177717543603862
 20
27.80324090391214
 11
7.427717543612527
 21
27.80324090391214
  0
LINE
  5
183
100
AcDbEntity
  8
0
  6
ByLayer
 62
  256
370
   -1
100
AcDbLine
 10
7.427695922344506
 20
30.40016781967216
 11
7.42769800377274
 21
30.15016781967216
  0
LINE
  5
184
100
AcDbEntity
  8
0
  6
ByLayer
 62
  256
370
   -1
100
AcDbLine
 10
7.427717543612527
 20
27.80324090391214
 11
7.427719625040762
 21
27.55324090391214
  0
LINE
  5
185
100
AcDbEntity
  8
0
  6
ByLayer
 62
  256
370
   -1
100
AcDbLine
 10
9.333040159623266
 20
27.80324090391214
 11
9.083040159614601
 21
27.80324090391214
  0
CIRCLE
  5
186
100
AcDbEntity
  8
0
  6
ByLayer
 62
  256
370
   -1
100
AcDbCircle
 10
8.255378851613564
 20
27.79194789611183
 40
0.09375
  0
MTEXT
  5
187
100
AcDbEntity
  8
0
  6
ByLayer
 62
  256
370
   -1
100
AcDbMText
 10
7.356049043231424
 20
27.99822687327763
 30
0
 40
0.125
 41
1.701389081746608
 71
    1
 72
    1
  1
Cross-section at P2
  7
standard
210
0
220
0
230
1
 50
0
 73
    2
 44
1
  0
LWPOLYLINE
  5
188
100
AcDbEntity
  8
Bulkheads
  6
ByLayer
 62
  256
370
   -1
100
AcDbPolyline
 90
    4
 70
    1
 43
0
 10
18.56482312385059
 20
7.717095182604165
 10
18.68982312385059
 20
7.717095182604165
 10
18.68982312385059
 20
4.358644095356615
 10
18.56482312385059
 20
4.358644095356615
  0
LINE
  5
189
100
AcDbEntity
  8
0
  6
ByLayer
 62
  256
370
   -1
100
AcDbLine
 10
18.43977856909914
 20
13.2836150311932
 11
18.43982134170684
 21
14.78361285498339
  0
LINE
  5
18A
100
AcDbEntity
  8
Bulkheads
  6
ByLayer
 62
  256
370
   -1
100
AcDbLine
 10
18.56482312385059
 20
7.467095182604165
 11
18.68982312385059
 21
7.467095182604165
  0
LINE
  5
18B
100
AcDbEntity
  8
Bulkheads
  6
ByLayer
 62
  256
370
   -1
100
AcDbLine
 10
18.56482312385059
 20
7.217095182604165
 11
18.68982312385059
 21
7.217095182604165
  0
LINE
  5
18C
100
AcDbEntity
  8
Bulkheads
  6
ByLayer
 62
  256
370
   -1
100
AcDbLine
 10
18.43982312385059
 20
6.46161
 11
18.68982312383741
 21
6.46161
  0
LINE
  5
18D
100
AcDbEntity
  8
Bulkheads
  6
ByLayer
 62
  256
370
   -1
100
AcDbLine
 10
18.56482312385059
 20
6.882332997156468
 11
18.68982312385059
 21
6.882332996426475
  0
LINE
  5
18E
100
AcDbEntity
  8
Bulkheads
  6
ByLayer
 62
  256
370
   -1
100
AcDbLine
 10
18.56482312383741
 20
6.757332997156467
 11
18.68982312385059
 21
6.757332996426474
  0
LINE
  5
18F
100
AcDbEntity
  8
Bulkheads
  6
ByLayer
 62
  256
370
   -1
100
AcDbLine
 10
18.32117691598495
 20
12.52543355001866
 11
18.32117691598495
 21
12.2019859068049
  0
LINE
  5
190
100
AcDbEntity
  8
Bulkheads
  6
ByLayer
 62
  256
370
   -1
100
AcDbLine
 10
18.32117691598495
 20
12.2019859068049
 11
17.43029224792728
 21
12.2019859068049
  0
LINE
  5
191
100
AcDbEntity
  8
Bulkheads
  6
ByLayer
 62
  256
370
   -1
100
AcDbLine
 10
18.32117691598495
 20
14.03404468706765
 11
18.32117691598495
 21
14.35749233028141
  0
LINE
  5
192
100
AcDbEntity
  8
Bulkheads
  6
ByLayer
 62
  256
370
   -1
100
AcDbLine
 10
18.32117691598495
 20
14.35749233028141
 11
17.43029224792728
 21
14.35749233028141
  0
LINE
  5
193
100
AcDbEntity
  8
Bulkheads
  6
ByLayer
 62
  256
370
   -1
100
AcDbLine
 10
18.32117697023901
 20
12.52620579554673
 11
18.32117699351517
 21
12.20275815233296
  0
LINE
  5
194
100
AcDbEntity
  8
Bulkheads
  6
ByLayer
 62
  256
370
   -1
100
AcDbLine
 10
18.32117699351517
 20
12.20275815233296
 11
17.43029232545751
 21
12.2027580882225
  0
LWPOLYLINE
  5
195
100
AcDbEntity
  8
Bulkheads
  6
ByLayer
 62
  256
370
   -1
100
AcDbPolyline
 90
    4
 70
    1
 43
0
 10
16.14487297152902
 20
14.35798662086783
 10
16.14481643857522
 20
12.20288908701956
 10
16.39481643857522
 20
12.20288908701956
 10
16.39487297152902
 20
14.35798662086783
  0
LWPOLYLINE
  5
196
100
AcDbEntity
  8
Bulkheads
  6
ByLayer
 62
  256
370
   -1
100
AcDbPolyline
 90
    4
 70
    1
 43
0
 10
17.31505342889459
 20
14.35782425366132
 10
17.31499689594079
 20
12.20272671981303
 10
17.56499689594079
 20
12.20272671981303
 10
17.56505342889459
 20
14.35782425366132
  0
LWPOLYLINE
  5
197
100
AcDbEntity
  8
Bulkheads
  6
ByLayer
 62
  256
370
   -1
100
AcDbPolyline
 90
    4
 70
    1
 43
0
 10
16.39140423158467
 20
13.94607889582133
 10
16.39140423158467
 20
13.53592102092156
 10
17.31087902806327
 20
13.53592102092156
 10
17.31087902806327
 20
13.94607889582133
  0
LWPOLYLINE
  5
198
100
AcDbEntity
  8
Bulkheads
  6
ByLayer
 62
  256
370
   -1
100
AcDbPolyline
 90
    4
 70
    1
 43
0
 10
16.39140424999243
 20
13.02432932282118
 10
16.39140424999243
 20
12.6141715140893
 10
17.3108790759871
 20
12.6141715140893
 10
17.3108790759871
 20
13.02432932282118
  0
LINE
  5
199
100
AcDbEntity
  8
Bulkheads
  6
ByLayer
 62
  256
370
   -1
100
AcDbLine
 10
15.6031652308374
 20
14.35768218235561
 11
17.43029224792728
 21
14.35749233028141
  0
LINE
  5
19A
100
AcDbEntity
  8
Bulkheads
  6
ByLayer
 62
  256
370
   -1
100
AcDbLine
 10
17.43029224792728
 20
14.35749233028141
 11
18.32117691598495
 21
14.35749233028141
  0
LINE
  5
19B
100
AcDbEntity
  8
Bulkheads
  6
ByLayer
 62
  256
370
   -1
100
AcDbLine
 10
18.32117691598495
 20
14.35749233028141
 11
18.32117691598495
 21
14.03006470681186
  0
LINE
  5
19C
100
AcDbEntity
  8
Bulkheads
  6
ByLayer
 62
  256
370
   -1
100
AcDbLine
 10
18.32117691598495
 20
12.53006470681186
 11
18.32117699351517
 21
12.20275815233296
  0
LINE
  5
19D
100
AcDbEntity
  8
Bulkheads
  6
ByLayer
 62
  256
370
   -1
100
AcDbLine
 10
18.32117699351517
 20
12.20275815233296
 11
15.6031652308374
 21
12.20257628846161
  0
LINE
  5
19E
100
AcDbEntity
  8
Bulkheads
  6
ByLayer
 62
  256
370
   -1
100
AcDbLine
 10
15.6031652308374
 20
12.20257628846161
 11
15.6031652308374
 21
14.35768218235561
  0
LINE
  5
19F
100
AcDbEntity
  8
Bulkheads
  6
ByLayer
 62
  256
370
   -1
100
AcDbLine
 10
18.32117691598495
 20
14.03006470681186
 11
18.68982312385059
 21
14.03006470681186
  0
LINE
  5
1A0
100
AcDbEntity
  8
Bulkheads
  6
ByLayer
 62
  256
370
   -1
100
AcDbLine
 10
18.68982312385059
 20
12.53006470681186
 11
18.32117691598495
 21
12.53006470681186
  0
LINE
  5
1A1
100
AcDbEntity
  8
Bulkheads
  6
ByLayer
 62
  256
370
   -1
100
AcDbLine
 10
18.68982312385059
 20
14.03006470681186
 11
18.68982312385059
 21
12.53006470681186
  0
LINE
  5
1A2
100
AcDbEntity
  8
0
  6
ByLayer
 62
  256
370
   -1
100
AcDbLine
 10
8.255378851613564
 20
30.65016781967216
 11
7.427698003772741
 21
30.65016781967216
  0
ARC
  5
1A3
100
AcDbEntity
  8
0
  6
ByLayer
 62
  256
370
   -1
100
AcDbCircle
 10
7.427698003772741
 20
30.15016781967216
 40
0.5
100
AcDbArc
 50
90
 51
180.0004770282129
  0
LINE
  5
1A4
100
AcDbEntity
  8
0
  6
ByLayer
 62
  256
370
   -1
100
AcDbLine
 10
6.927698003790071
 20
30.15016365681569
 11
6.927717543629857
 21
27.80323674105567
  0
LINE
  5
1A5
100
AcDbEntity
  8
0
  6
ByLayer
 62
  256
370
   -1
100
AcDbLine
 10
7.427717543612528
 20
27.30324090391214
 11
8.255378851613564
 21
27.30324090391214
  0
ARC
  5
1A6
100
AcDbEntity
  8
0
  6
ByLayer
 62
  256
370
   -1
100
AcDbCircle
 10
7.427717543612528
 20
27.80324090391214
 40
0.5
100
AcDbArc
 50
180.0004770282129
 51
270
  0
LINE
  5
1A7
100
AcDbEntity
  8
0
  6
ByLayer
 62
  256
370
   -1
100
AcDbLine
 10
8.255378851613564
 20
30.40016781967216
 11
6.99468530188048
 21
30.40016781967216
  0
LINE
  5
1A8
100
AcDbEntity
  8
0
  6
ByLayer
 62
  256
370
   -1
100
AcDbLine
 10
6.994704841720235
 20
27.55324090391214
 11
8.255378851613564
 21
27.55324090391214
  0
LINE
  5
1A9
100
AcDbEntity
  8
0
  6
ByLayer
 62
  256
370
   -1
100
AcDbLine
 10
15.58974628186585
 20
6.507333014530756
 11
18.31482312383741
 21
6.507332998616454
  0
LINE
  5
1AA
100
AcDbEntity
  8
0
  6
ByLayer
 62
  256
370
   -1
100
AcDbLine
 10
8.347970736190739
 20
25.37651005009617
 11
7.020354318139908
 21
25.37651005009617
  0
LINE
  5
1AB
100
AcDbEntity
  8
0
  6
ByLayer
 62
  256
370
   -1
100
AcDbLine
 10
7.601521060572075
 20
25.67223305161187
 11
8.347970736190739
 21
25.67223304725264
  0
LINE
  5
1AC
100
AcDbEntity
  8
0
  6
ByLayer
 62
  256
370
   -1
100
AcDbLine
 10
7.601521060572075
 20
25.79723305161186
 11
8.347970736190739
 21
25.79723304725264
  0
LINE
  5
1AD
100
AcDbEntity
  8
0
  6
ByLayer
 62
  256
370
   -1
100
AcDbLine
 10
7.601521060572075
 20
25.67223305161186
 11
7.601521060572075
 21
25.79723305161186
  0
LINE
  5
1AE
100
AcDbEntity
  8
0
  6
ByLayer
 62
  256
370
   -1
100
AcDbLine
 10
8.347970736190739
 20
23.72966869387939
 11
8.347970736190739
 21
23.64854414545278
  0
LINE
  5
1AF
100
AcDbEntity
  8
0
  6
ByLayer
 62
  256
370
   -1
100
AcDbLine
 10
7.520360608109989
 20
26.13199523270034
 11
7.520362689538224
 21
26.38199523270034
  0
LINE
  5
1B0
100
AcDbEntity
  8
0
  6
ByLayer
 62
  256
370
   -1
100
AcDbLine
 10
7.270360608101328
 20
26.13199523270034
 11
7.520360608109989
 21
26.13199523270034
  0
LINE
  5
1B1
100
AcDbEntity
  8
0
  6
ByLayer
 62
  256
370
   -1
100
AcDbLine
 10
8.347970736190739
 20
23.27354414545278
 11
8.347970736190739
 21
26.63199523270034
  0
LINE
  5
1B2
100
AcDbEntity
  8
0
  6
ByLayer
 62
  256
370
   -1
100
AcDbLine
 10
7.520337850180908
 20
23.39854414545278
 11
7.520339931609136
 21
23.64854414545278
  0
LINE
  5
1B3
100
AcDbEntity
  8
0
  6
ByLayer
 62
  256
370
   -1
100
AcDbLine
 10
7.270337850172233
 20
23.39854414545278
 11
7.270362689529556
 21
26.38199523270034
  0
LINE
  5
1B4
100
AcDbEntity
  8
0
  6
ByLayer
 62
  256
370
   -1
100
AcDbLine
 10
7.520339931609136
 20
23.64854414545278
 11
7.270339931600475
 21
23.64854414545278
  0
LINE
  5
1B5
100
AcDbEntity
  8
0
  6
ByLayer
 62
  256
370
   -1
100
AcDbLine
 10
7.726521060572075
 20
23.64854414545278
 11
7.726521060572075
 21
23.72966869387939
  0
LINE
  5
1B6
100
AcDbEntity
  8
0
  6
ByLayer
 62
  256
370
   -1
100
AcDbLine
 10
7.726521060572075
 20
23.72966869387939
 11
8.347970736190739
 21
23.72966869387939
  0
LINE
  5
1B7
100
AcDbEntity
  8
0
  6
ByLayer
 62
  256
370
   -1
100
AcDbLine
 10
8.347970736190739
 20
23.64854414545278
 11
7.726521060572075
 21
23.64854414545278
  0
LINE
  5
1B8
100
AcDbEntity
  8
0
  6
ByLayer
 62
  256
370
   -1
100
AcDbLine
 10
7.770352618874227
 20
25.4222330506259
 11
8.347970734730758
 21
25.42223304725264
  0
ARC
  5
1B9
100
AcDbEntity
  8
0
  6
ByLayer
 62
  256
370
   -1
100
AcDbCircle
 10
7.770352617414233
 20
25.1722330506259
 40
0.25
100
AcDbArc
 50
89.99999966539546
 51
179.9995229717871
  0
LINE
  5
1BA
100
AcDbEntity
  8
0
  6
ByLayer
 62
  256
370
   -1
100
AcDbLine
 10
7.520344769902643
 20
24.22967077530763
 11
7.520352617422908
 21
25.17223513205414
  0
LINE
  5
1BB
100
AcDbEntity
  8
0
  6
ByLayer
 62
  256
370
   -1
100
AcDbLine
 10
7.770344769893974
 20
23.97966869387939
 11
8.347970736190739
 21
23.97966869387939
  0
ARC
  5
1BC
100
AcDbEntity
  8
0
  6
ByLayer
 62
  256
370
   -1
100
AcDbCircle
 10
7.770344769893974
 20
24.22966869387939
 40
0.25
100
AcDbArc
 50
179.9995229717871
 51
270
  0
LINE
  5
1BD
100
AcDbEntity
  8
0
  6
ByLayer
 62
  256
370
   -1
100
AcDbLine
 10
8.347970736190739
 20
23.27354414545278
 11
9.675604662932002
 21
23.27354414545278
  0
LINE
  5
1BE
100
AcDbEntity
  8
0
  6
ByLayer
 62
  256
370
   -1
100
AcDbLine
 10
8.347970736190739
 20
23.39854414545278
 11
9.675603622217899
 21
23.39854414545278
  0
LINE
  5
1BF
100
AcDbEntity
  8
0
  6
ByLayer
 62
  256
370
   -1
100
AcDbLine
 10
9.675578782860576
 20
26.38199523270034
 11
8.347970736190739
 21
26.38199523270034
  0
LINE
  5
1C0
100
AcDbEntity
  8
0
  6
ByLayer
 62
  256
370
   -1
100
AcDbLine
 10
9.675576701432348
 20
26.63199523270034
 11
8.347970736190739
 21
26.63199523270034
  0
LINE
  5
1C1
100
AcDbEntity
  8
0
  6
ByLayer
 62
  256
370
   -1
100
AcDbLine
 10
9.675604662932002
 20
23.27354414545278
 11
9.675576701432348
 21
26.63199523270034
  0
LINE
  5
1C2
100
AcDbEntity
  8
0
  6
ByLayer
 62
  256
370
   -1
100
AcDbLine
 10
8.347970736190739
 20
25.37651005009617
 11
9.675587154241569
 21
25.37651005009617
  0
LINE
  5
1C3
100
AcDbEntity
  8
0
  6
ByLayer
 62
  256
370
   -1
100
AcDbLine
 10
9.094420411809395
 20
25.67223305161187
 11
8.347970736190739
 21
25.67223304725264
  0
LINE
  5
1C4
100
AcDbEntity
  8
0
  6
ByLayer
 62
  256
370
   -1
100
AcDbLine
 10
9.094420411809395
 20
25.79723305161186
 11
8.347970736190739
 21
25.79723304725264
  0
LINE
  5
1C5
100
AcDbEntity
  8
0
  6
ByLayer
 62
  256
370
   -1
100
AcDbLine
 10
9.094420411809395
 20
25.67223305161186
 11
9.094420411809395
 21
25.79723305161186
  0
LINE
  5
1C6
100
AcDbEntity
  8
0
  6
ByLayer
 62
  256
370
   -1
100
AcDbLine
 10
8.347970736190739
 20
23.72966869387939
 11
8.347970736190739
 21
23.64854414545278
  0
LINE
  5
1C7
100
AcDbEntity
  8
0
  6
ByLayer
 62
  256
370
   -1
100
AcDbLine
 10
9.175580864271488
 20
26.13199523270034
 11
9.175578782843246
 21
26.38199523270034
  0
LINE
  5
1C8
100
AcDbEntity
  8
0
  6
ByLayer
 62
  256
370
   -1
100
AcDbLine
 10
9.425580864280143
 20
26.13199523270034
 11
9.175580864271488
 21
26.13199523270034
  0
LINE
  5
1C9
100
AcDbEntity
  8
0
  6
ByLayer
 62
  256
370
   -1
100
AcDbLine
 10
8.347970736190739
 20
23.27354414545278
 11
8.347970736190739
 21
26.63199523270034
  0
LINE
  5
1CA
100
AcDbEntity
  8
0
  6
ByLayer
 62
  256
370
   -1
100
AcDbLine
 10
9.175603622200569
 20
23.39854414545278
 11
9.175601540772334
 21
23.64854414545278
  0
LINE
  5
1CB
100
AcDbEntity
  8
0
  6
ByLayer
 62
  256
370
   -1
100
AcDbLine
 10
9.425603622209223
 20
23.39854414545278
 11
9.425578782851915
 21
26.38199523270034
  0
LINE
  5
1CC
100
AcDbEntity
  8
0
  6
ByLayer
 62
  256
370
   -1
100
AcDbLine
 10
9.175601540772334
 20
23.64854414545278
 11
9.425601540780995
 21
23.64854414545278
  0
LINE
  5
1CD
100
AcDbEntity
  8
0
  6
ByLayer
 62
  256
370
   -1
100
AcDbLine
 10
8.969420411809395
 20
23.64854414545278
 11
8.969420411809395
 21
23.72966869387939
  0
LINE
  5
1CE
100
AcDbEntity
  8
0
  6
ByLayer
 62
  256
370
   -1
100
AcDbLine
 10
8.969420411809395
 20
23.72966869387939
 11
8.347970736190739
 21
23.72966869387939
  0
LINE
  5
1CF
100
AcDbEntity
  8
0
  6
ByLayer
 62
  256
370
   -1
100
AcDbLine
 10
8.347970736190739
 20
23.64854414545278
 11
8.969420411809395
 21
23.64854414545278
  0
LINE
  5
1D0
100
AcDbEntity
  8
0
  6
ByLayer
 62
  256
370
   -1
100
AcDbLine
 10
8.925588853507243
 20
25.4222330506259
 11
8.347970737650712
 21
25.42223304725264
  0
ARC
  5
1D1
100
AcDbEntity
  8
0
  6
ByLayer
 62
  256
370
   -1
100
AcDbCircle
 10
8.925588854967238
 20
25.1722330506259
 40
0.25
100
AcDbArc
 50
0.0004770282129226399
 51
90.00000033460454
  0
LINE
  5
1D2
100
AcDbEntity
  8
0
  6
ByLayer
 62
  256
370
   -1
100
AcDbLine
 10
9.175596702478828
 20
24.22967077530763
 11
9.175588854958569
 21
25.17223513205414
  0
LINE
  5
1D3
100
AcDbEntity
  8
0
  6
ByLayer
 62
  256
370
   -1
100
AcDbLine
 10
8.925596702487496
 20
23.97966869387939
 11
8.347970736190739
 21
23.97966869387939
  0
ARC
  5
1D4
100
AcDbEntity
  8
0
  6
ByLayer
 62
  256
370
   -1
100
AcDbCircle
 10
8.925596702487496
 20
24.22966869387939
 40
0.25
100
AcDbArc
 50
270
 51
0.0004770282129226399
  0
LINE
  5
1D5
100
AcDbEntity
  8
0
  6
ByLayer
 62
  256
370
   -1
100
AcDbLine
 10
7.520360608109989
 20
26.63199523270034
 11
8.347970736190739
 21
26.63199523270034
  0
ARC
  5
1D6
100
AcDbEntity
  8
0
  6
ByLayer
 62
  256
370
   -1
100
AcDbCircle
 10
7.520360608109989
 20
26.13199523270033
 40
0.5
100
AcDbArc
 50
90
 51
179.9995229717875
  0
LINE
  5
1D7
100
AcDbEntity
  8
0
  6
ByLayer
 62
  256
370
   -1
100
AcDbLine
 10
7.020340972340598
 20
23.77354830830925
 11
7.020360608127312
 21
26.1319993955568
  0
LINE
  5
1D8
100
AcDbEntity
  8
0
  6
ByLayer
 62
  256
370
   -1
100
AcDbLine
 10
8.347970736190739
 20
23.27354414545278
 11
7.520340972323268
 21
23.27354414545278
  0
ARC
  5
1D9
100
AcDbEntity
  8
0
  6
ByLayer
 62
  256
370
   -1
100
AcDbCircle
 10
7.520340972323268
 20
23.77354414545278
 40
0.5
100
AcDbArc
 50
179.9995229717871
 51
270
  0
LINE
  5
1DA
100
AcDbEntity
  8
0
  6
ByLayer
 62
  256
370
   -1
100
AcDbLine
 10
7.087347906217346
 20
26.38199523270034
 11
8.347970736190739
 21
26.38199523270034
  0
LINE
  5
1DB
100
AcDbEntity
  8
0
  6
ByLayer
 62
  256
370
   -1
100
AcDbLine
 10
8.347970736190739
 20
23.39854414545278
 11
7.189622058440278
 21
23.39854414545278
  0
LINE
  5
1DC
100
AcDbEntity
  8
0
  6
ByLayer
 62
  256
370
   -1
100
AcDbLine
 10
9.12653150873415
 20
22.54488106741006
 11
9.126509033916712
 21
19.84543447340181
  0
LINE
  5
1DD
100
AcDbEntity
  8
0
  6
ByLayer
 62
  256
370
   -1
100
AcDbLine
 10
9.126509033916712
 20
19.84543447340183
 11
7.923788236180972
 21
19.84543447340181
  0
LINE
  5
1DE
100
AcDbEntity
  8
0
  6
ByLayer
 62
  256
370
   -1
100
AcDbLine
 10
7.923788236180972
 20
20.10296155560038
 11
9.126511178013271
 21
20.10296155560038
  0
LINE
  5
1DF
100
AcDbEntity
  8
0
  6
ByLayer
 62
  256
370
   -1
100
AcDbLine
 10
7.923788236180972
 20
22.54488106741006
 11
9.12653150873415
 21
22.54488106741006
  0
LINE
  5
1E0
100
AcDbEntity
  8
0
  6
ByLayer
 62
  256
370
   -1
100
AcDbLine
 10
7.923788236180972
 20
21.29253927271478
 11
9.12652108209587
 21
21.29253927271478
  0
LINE
  5
1E1
100
AcDbEntity
  8
0
  6
ByLayer
 62
  256
370
   -1
100
AcDbLine
 10
7.923788236180972
 20
22.54488106741006
 11
7.923788236180972
 21
19.84543447340181
  0
LINE
  5
1E2
100
AcDbEntity
  8
0
  6
ByLayer
 62
  256
370
   -1
100
AcDbLine
 10
7.923788236180972
 20
21.29253927271478
 11
6.721055390266081
 21
21.29253927271479
  0
LINE
  5
1E3
100
AcDbEntity
  8
0
  6
ByLayer
 62
  256
370
   -1
100
AcDbLine
 10
7.221049100330649
 20
22.04802445531896
 11
6.971049100321981
 21
22.04802445531896
  0
LINE
  5
1E4
100
AcDbEntity
  8
0
  6
ByLayer
 62
  256
370
   -1
100
AcDbLine
 10
8.626527372031301
 20
22.04802445531896
 11
8.876527372039959
 21
22.04802445531896
  0
LINE
  5
1E5
100
AcDbEntity
  8
0
  6
ByLayer
 62
  256
370
   -1
100
AcDbLine
 10
7.221047045073352
 20
22.29488106741007
 11
7.221049100330649
 21
22.04802445531896
  0
LINE
  5
1E6
100
AcDbEntity
  8
0
  6
ByLayer
 62
  256
370
   -1
100
AcDbLine
 10
8.626529427288592
 20
22.29488106741006
 11
8.626527372031301
 21
22.04802445531896
  0
LINE
  5
1E7
100
AcDbEntity
  8
0
  6
ByLayer
 62
  256
370
   -1
100
AcDbLine
 10
8.87652942729725
 20
22.29488106741006
 11
8.876511178004609
 21
20.10296155560038
  0
LINE
  5
1E8
100
AcDbEntity
  8
0
  6
ByLayer
 62
  256
370
   -1
100
AcDbLine
 10
6.97104704506469
 20
22.29488106741007
 11
6.971065294357331
 21
20.10296155560038
  0
ELLIPSE
  5
1E9
100
AcDbEntity
  8
0
  6
ByLayer
 62
  256
370
   -1
100
AcDbEllipse
 10
7.923788236180972
 20
20.42411682244011
 30
0
 11
0.4804341387879553
 21
0.003428527049125663
 31
0
 40
0.4887993886060144
 41
0
 42
6.283185307179586
  0
ELLIPSE
  5
1EA
100
AcDbEntity
  8
0
  6
ByLayer
 62
  256
370
   -1
100
AcDbEllipse
 10
8.674931945219452
 20
21.29106331862837
 30
0
 11
0.005809841910580345
 21
0.3071490189531518
 31
0
 40
0.4213191963300171
 41
0
 42
6.283185307179586
  0
ELLIPSE
  5
1EB
100
AcDbEntity
  8
0
  6
ByLayer
 62
  256
370
   -1
100
AcDbEllipse
 10
7.172644527142491
 20
21.29106331862837
 30
0
 11
-0.005809841910580094
 21
0.3071490189531527
 31
0
 40
0.4213191963300172
 41
0
 42
6.283185307179586
  0
MTEXT
  5
1EC
100
AcDbEntity
  8
Bulkheads
  6
ByLayer
 62
  256
370
   -1
100
AcDbMText
 10
8.493327862923191
 20
20.46088060317319
 30
0
 40
0.25
 41
0.2777777777777778
 71
    1
 72
    1
  1
P1
  7
standard
210
0
220
0
230
1
 50
0
 73
    2
 44
1
  0
LINE
  5
1ED
100
AcDbEntity
  8
0
  6
ByLayer
 62
  256
370
   -1
100
AcDbLine
 10
7.923788236180972
 20
22.29488106741006
 11
9.12653150873415
 21
22.29488106741006
  0
LINE
  5
1EE
100
AcDbEntity
  8
0
  6
ByLayer
 62
  256
370
   -1
100
AcDbLine
 10
7.221063275606081
 20
19.84543447340182
 11
7.923788236180972
 21
19.84543447340181
  0
ARC
  5
1EF
100
AcDbEntity
  8
0
  6
ByLayer
 62
  256
370
   -1
100
AcDbCircle
 10
7.221063275606081
 20
20.34543447340182
 40
0.5
100
AcDbArc
 50
180.0004770282126
 51
269.9999999999995
  0
LINE
  5
1F0
100
AcDbEntity
  8
0
  6
ByLayer
 62
  256
370
   -1
100
AcDbLine
 10
7.923788236180972
 20
22.54488106741006
 11
7.22104912650159
 21
22.54488106741007
  0
LINE
  5
1F1
100
AcDbEntity
  8
0
  6
ByLayer
 62
  256
370
   -1
100
AcDbLine
 10
6.721049126518921
 20
22.0448769045536
 11
6.721063275623411
 21
20.34543031054535
  0
ARC
  5
1F2
100
AcDbEntity
  8
0
  6
ByLayer
 62
  256
370
   -1
100
AcDbCircle
 10
7.22104912650159
 20
22.04488106741007
 40
0.5
100
AcDbArc
 50
89.99999999999984
 51
180.0004770282127
  0
LINE
  5
1F3
100
AcDbEntity
  8
0
  6
ByLayer
 62
  256
370
   -1
100
AcDbLine
 10
7.923788236180972
 20
22.29488106741006
 11
6.788036424609391
 21
22.29488106741007
  0
LINE
  5
1F4
100
AcDbEntity
  8
0
  6
ByLayer
 62
  256
370
   -1
100
AcDbLine
 10
7.923788236180972
 20
20.10296155560038
 11
6.783791181672711
 21
20.10296155560038
  0
MTEXT
  5
1F5
100
AcDbEntity
  8
0
  6
ByLayer
 62
  256
370
   -1
100
AcDbMText
 10
23.74810089520068
 20
26.34680358305276
 30
0
 40
0.1
 41
0.3222222222222269
 71
    1
 72
    5
  1
bevel
  7
standard
210
0
220
0
230
1
 50
270
 73
    1
 44
1
  0
LINE
  5
1F6
100
AcDbEntity
  8
0
  6
ByLayer
 62
  256
370
   -1
100
AcDbLine
 10
19.64111573486048
 20
23.73178577136614
 11
23.82305384666973
 21
23.73178577136614
  0
MTEXT
  5
1F7
100
AcDbEntity
  8
0
  6
ByLayer
 62
  256
370
   -1
100
AcDbMText
 10
23.74810089520068
 20
21.11676795967954
 30
0
 40
0.1
 41
0.3222222222222269
 71
    7
 72
    5
  1
bevel
  7
standard
210
0
220
0
230
1
 50
90
 73
    1
 44
1
  0
LINE
  5
1F8
100
AcDbEntity
  8
0
  6
ByLayer
 62
  256
370
   -1
100
AcDbLine
 10
19.64111573486048
 20
23.73178577136614
 11
23.82305384666973
 21
23.73178577136614
  0
LINE
  5
1F9
100
AcDbEntity
  8
0
  6
ByLayer
 62
  256
370
   -1
100
AcDbLine
 10
23.57305384641056
 20
23.73178577136614
 11
23.57270620460741
 21
16.09697320694036
  0
LINE
  5
1FA
100
AcDbEntity
  8
0
  6
ByLayer
 62
  256
370
   -1
100
AcDbLine
 10
23.57305384641056
 20
23.73178577136614
 11
23.57270620460741
 21
31.36659833579193
  0
SPLINE
  5
1FB
100
AcDbEntity
  8
0
  6
ByLayer
 62
  256
370
   -1
100
AcDbSpline
210
0
220
0
230
0
 70
    8
 71
    3
 72
   12
 73
    8
 74
    0
 42
1e-07
 43
1e-07
 40
0
 40
0
 40
0
 40
0
 40
0.2
 40
0.4
 40
0.6000000000000001
 40
0.8
 40
1
 40
1
 40
1
 40
1
 10
19.6411643109899
 20
23.73181874973219
 30
0
 10
20.07630940827107
 20
18.03992646209505
 30
0
 10
21.53414401360861
 20
15.93584873181358
 30
0
 10
22.78089888004698
 20
15.7251295994578
 30
0
 10
23.95741403570009
 20
16.05876822568779
 30
0
 10
25.65900073455246
 20
19.62915975935763
 30
0
 10
25.29196854062002
 20
22.872020171858
 30
0
 10
23.82305384666973
 20
23.48178577136614
 30
0
  0
SPLINE
  5
1FC
100
AcDbEntity
  8
0
  6
ByLayer
 62
  256
370
   -1
100
AcDbSpline
210
0
220
0
230
0
 70
    8
 71
    3
 72
   12
 73
    8
 74
    0
 42
1e-07
 43
1e-07
 40
0
 40
0
 40
0
 40
0
 40
0.2
 40
0.4
 40
0.6000000000000001
 40
0.8
 40
1
 40
1
 40
1
 40
1
 10
19.6411643109899
 20
23.73175279300009
 30
0
 10
20.07630940827107
 20
29.42364508063725
 30
0
 10
21.53414401360861
 20
31.52772281091871
 30
0
 10
22.78089888004698
 20
31.73844194327449
 30
0
 10
23.95741403570009
 20
31.4048033170445
 30
0
 10
25.65900073455246
 20
27.83441178337466
 30
0
 10
25.29196854062002
 20
24.59155137087428
 30
0
 10
23.82305384666973
 20
23.98178577136614
 30
0
  0
LINE
  5
1FD
100
AcDbEntity
  8
0
  6
ByLayer
 62
  256
370
   -1
100
AcDbLine
 10
23.57300568477016
 20
25.01833220101085
 11
23.57300568477016
 21
24.51833220101085
  0
LINE
  5
1FE
100
AcDbEntity
  8
0
  6
ByLayer
 62
  256
370
   -1
100
AcDbLine
 10
23.82305384641056
 20
23.73178577136614
 11
23.82305384641056
 21
25.23178577136614
  0
LINE
  5
1FF
100
AcDbEntity
  8
0
  6
ByLayer
 62
  256
370
   -1
100
AcDbLine
 10
23.57305384641056
 20
25.23178577136614
 11
23.57305384641056
 21
23.73178577136614
  0
LINE
  5
200
100
AcDbEntity
  8
0
  6
ByLayer
 62
  256
370
   -1
100
AcDbLine
 10
24.07305384641056
 20
25.23178577136614
 11
23.57305384641056
 21
25.23178577136614
  0
LINE
  5
201
100
AcDbEntity
  8
0
  6
ByLayer
 62
  256
370
   -1
100
AcDbLine
 10
23.57302726635262
 20
22.44523934109454
 11
23.57301887894352
 21
22.94523934102419
  0
LINE
  5
202
100
AcDbEntity
  8
0
  6
ByLayer
 62
  256
370
   -1
100
AcDbLine
 10
23.82305384637539
 20
23.7317899650707
 11
23.82307900860267
 21
22.23178996528173
  0
LINE
  5
203
100
AcDbEntity
  8
0
  6
ByLayer
 62
  256
370
   -1
100
AcDbLine
 10
23.57307900863784
 20
22.23178577157719
 11
23.57305384641056
 21
23.73178577136614
  0
LINE
  5
204
100
AcDbEntity
  8
0
  6
ByLayer
 62
  256
370
   -1
100
AcDbLine
 10
23.82307900867302
 20
22.23178577157643
 11
23.57307750443102
 21
22.23178182855448
  0
LINE
  5
205
100
AcDbEntity
  8
0
  6
ByLayer
 62
  256
370
   -1
100
AcDbLine
 10
24.07305384641056
 20
24.1022251488585
 11
24.07305384641056
 21
25.23178577136614
  0
MTEXT
  5
206
100
AcDbEntity
  8
0
  6
ByLayer
 62
  256
370
   -1
100
AcDbMText
 10
23.94950528847128
 20
24.42687871908604
 30
0
 40
0.0625
 41
0.5243056519844109
 71
    1
 72
    1
  1
1/4 sq. bass
  7
iso
210
0
220
0
230
1
 50
90
 73
    2
 44
1
  0
MTEXT
  5
207
100
AcDbEntity
  8
0
  6
ByLayer
 62
  256
370
   -1
100
AcDbMText
 10
23.67175388432643
 20
23.48252394499355
 30
0
 40
0.0625
 41
0.5243056519844109
 71
    1
 72
    1
  1
1/4 sq. bass
  7
iso
210
0
220
0
230
1
 50
90
 73
    2
 44
1
  0
MTEXT
  5
208
100
AcDbEntity
  8
0
  6
ByLayer
 62
  256
370
   -1
100
AcDbMText
 10
23.19929320195844
 20
27.81350700042211
 30
0
 40
0.0625
 41
0.7951389210318504
 71
    1
 72
    1
  1
CA hinges glued \Pinto bare foam\Pwith foam-safe CA
  7
iso
210
0
220
0
230
1
 50
90
 73
    2
 44
1
  0
ARC
  5
209
100
AcDbEntity
  8
0
  6
ByLayer
 62
  256
370
   -1
100
AcDbCircle
 10
36.94545644378115
 20
6.335718085796149
 40
0.09375
100
AcDbArc
 50
90
 51
180
  0
LINE
  5
20A
100
AcDbEntity
  8
0
  6
ByLayer
 62
  256
370
   -1
100
AcDbLine
 10
36.85170644378115
 20
6.335718085796149
 11
36.85170644378115
 21
6.273218085796149
  0
ARC
  5
20B
100
AcDbEntity
  8
0
  6
ByLayer
 62
  256
370
   -1
100
AcDbCircle
 10
36.94545644378115
 20
6.273218085796149
 40
0.09375
100
AcDbArc
 50
180
 51
270
  0
LINE
  5
20C
100
AcDbEntity
  8
Bulkheads
  6
ByLayer
 62
  256
370
   -1
100
AcDbLine
 10
28.82965455041533
 20
26.83735688951622
 11
28.82965455041533
 21
26.51390924630246
  0
LINE
  5
20D
100
AcDbEntity
  8
Bulkheads
  6
ByLayer
 62
  256
370
   -1
100
AcDbLine
 10
28.82965455041533
 20
26.51390924630246
 11
27.93876988235767
 21
26.51390924630246
  0
LINE
  5
20E
100
AcDbEntity
  8
Bulkheads
  6
ByLayer
 62
  256
370
   -1
100
AcDbLine
 10
28.82965455041533
 20
28.34596802656521
 11
28.82965455041533
 21
28.66941566977897
  0
LINE
  5
20F
100
AcDbEntity
  8
Bulkheads
  6
ByLayer
 62
  256
370
   -1
100
AcDbLine
 10
28.82965455041533
 20
28.66941566977897
 11
27.93876988235767
 21
28.66941566977897
  0
LINE
  5
210
100
AcDbEntity
  8
Bulkheads
  6
ByLayer
 62
  256
370
   -1
100
AcDbLine
 10
28.82965460466939
 20
26.83812913504429
 11
28.82965462794556
 21
26.51468149183053
  0
LINE
  5
211
100
AcDbEntity
  8
Bulkheads
  6
ByLayer
 62
  256
370
   -1
100
AcDbLine
 10
28.82965462794556
 20
26.51468149183053
 11
27.93876995988789
 21
26.51468142772007
  0
LINE
  5
212
100
AcDbEntity
  8
Bulkheads
  6
ByLayer
 62
  256
370
   -1
100
AcDbLine
 10
28.82965455041533
 20
26.84198804630942
 11
28.93876993633403
 21
26.84198804630942
  0
LINE
  5
213
100
AcDbEntity
  8
Bulkheads
  6
ByLayer
 62
  256
370
   -1
100
AcDbLine
 10
28.93876982839001
 20
28.34198804630942
 11
28.82965455041533
 21
28.34198804630942
  0
LWPOLYLINE
  5
214
100
AcDbEntity
  8
Bulkheads
  6
ByLayer
 62
  256
370
   -1
100
AcDbPolyline
 90
    4
 70
    1
 43
0
 10
26.65335060595941
 20
28.66990996036539
 10
26.6532940730056
 20
26.51481242651712
 10
26.9032940730056
 20
26.51481242651712
 10
26.90335060595941
 20
28.66990996036539
  0
LWPOLYLINE
  5
215
100
AcDbEntity
  8
Bulkheads
  6
ByLayer
 62
  256
370
   -1
100
AcDbPolyline
 90
    4
 70
    1
 43
0
 10
27.82353106332497
 20
28.66974759315888
 10
27.82347453037118
 20
26.51465005931059
 10
28.07347453037118
 20
26.51465005931059
 10
28.07353106332498
 20
28.66974759315888
  0
LWPOLYLINE
  5
216
100
AcDbEntity
  8
Bulkheads
  6
ByLayer
 62
  256
370
   -1
100
AcDbPolyline
 90
    4
 70
    1
 43
0
 10
26.89988186601505
 20
28.25800223531889
 10
26.89988186601505
 20
27.84784436041912
 10
27.81935666249366
 20
27.84784436041912
 10
27.81935666249366
 20
28.25800223531889
  0
LWPOLYLINE
  5
217
100
AcDbEntity
  8
Bulkheads
  6
ByLayer
 62
  256
370
   -1
100
AcDbPolyline
 90
    4
 70
    1
 43
0
 10
26.89988188442281
 20
27.33625266231874
 10
26.89988188442281
 20
26.92609485358686
 10
27.81935671041748
 20
26.92609485358686
 10
27.81935671041748
 20
27.33625266231874
  0
LINE
  5
218
100
AcDbEntity
  8
Bulkheads
  6
ByLayer
 62
  256
370
   -1
100
AcDbLine
 10
26.11164286526779
 20
28.66960552185317
 11
27.93876988235767
 21
28.66941566977897
  0
LINE
  5
219
100
AcDbEntity
  8
Bulkheads
  6
ByLayer
 62
  256
370
   -1
100
AcDbLine
 10
27.93876988235767
 20
28.66941566977897
 11
28.82965455041533
 21
28.66941566977897
  0
LINE
  5
21A
100
AcDbEntity
  8
Bulkheads
  6
ByLayer
 62
  256
370
   -1
100
AcDbLine
 10
28.82965455041533
 20
28.66941566977897
 11
28.82965455041533
 21
28.34198804630942
  0
LINE
  5
21B
100
AcDbEntity
  8
Bulkheads
  6
ByLayer
 62
  256
370
   -1
100
AcDbLine
 10
28.82965455041533
 20
26.84198804630942
 11
28.82965462794556
 21
26.51468149183053
  0
LINE
  5
21C
100
AcDbEntity
  8
Bulkheads
  6
ByLayer
 62
  256
370
   -1
100
AcDbLine
 10
28.82965462794556
 20
26.51468149183053
 11
26.11164286526779
 21
26.51449962795917
  0
LINE
  5
21D
100
AcDbEntity
  8
Bulkheads
  6
ByLayer
 62
  256
370
   -1
100
AcDbLine
 10
25.98920170718899
 20
28.09205257490617
 11
25.98920170718899
 21
28.09205257490617
  0
LINE
  5
21E
100
AcDbEntity
  8
Bulkheads
  6
ByLayer
 62
  256
370
   -1
100
AcDbLine
 10
26.11164286526779
 20
26.51449962795917
 11
26.11164286526779
 21
28.66960552185317
  0
LINE
  5
21F
100
AcDbEntity
  8
Bulkheads
  6
ByLayer
 62
  256
370
   -1
100
AcDbLine
 10
28.82965455041533
 20
28.34198804630942
 11
29.19830075828098
 21
28.34198804630942
  0
LINE
  5
220
100
AcDbEntity
  8
Bulkheads
  6
ByLayer
 62
  256
370
   -1
100
AcDbLine
 10
29.19830075828098
 20
26.84198804630942
 11
28.82965455041533
 21
26.84198804630942
  0
LINE
  5
221
100
AcDbEntity
  8
Bulkheads
  6
ByLayer
 62
  256
370
   -1
100
AcDbLine
 10
29.19830075828098
 20
28.34198804630942
 11
29.19830075828098
 21
26.84198804630942
  0
MTEXT
  5
222
100
AcDbEntity
  8
Bulkheads
  6
ByLayer
 62
  256
370
   -1
100
AcDbMText
 10
27.91548743098487
 20
26.83511943887556
 30
0
 40
0.0625
 41
1.651041763095528
 71
    1
 72
    5
  1
{1/8 X 1/4" bass other side of plate}
  7
standard
210
0
220
0
230
1
 50
90
 73
    1
 44
1
  0
MTEXT
  5
223
100
AcDbEntity
  8
Bulkheads
  6
ByLayer
 62
  256
370
   -1
100
AcDbMText
 10
26.74766579758812
 20
26.58194457417306
 30
0
 40
0.0625
 41
1.651041763095528
 71
    1
 72
    5
  1
{1/8 X 1/4" bass other side of plate}
  7
standard
210
0
220
0
230
1
 50
90
 73
    1
 44
1
  0
LINE
  5
224
100
AcDbEntity
  8
0
  6
ByLayer
 62
  256
370
   -1
100
AcDbLine
 10
25.95755858361444
 20
24.9915217806855
 11
25.95755858361444
 21
24.8665217806855
  0
LINE
  5
225
100
AcDbEntity
  8
0
  6
ByLayer
 62
  256
370
   -1
100
AcDbLine
 10
25.70755858361444
 20
24.8665217806855
 11
25.70755858361444
 21
25.32628394875891
  0
ARC
  5
226
100
AcDbEntity
  8
0
  6
ByLayer
 62
  256
370
   -1
100
AcDbCircle
 10
25.95755858361444
 20
24.8665217806855
 40
0.25
100
AcDbArc
 50
180
 51
269.9999996653959
  0
LINE
  5
227
100
AcDbEntity
  8
0
  6
ByLayer
 62
  256
370
   -1
100
AcDbLine
 10
25.95755858215445
 20
24.6165217806855
 11
28.68263542412602
 21
24.6165217647712
  0
LINE
  5
228
100
AcDbEntity
  8
0
  6
ByLayer
 62
  256
370
   -1
100
AcDbLine
 10
25.95755858361444
 20
24.8665217806855
 11
28.68263542412602
 21
24.8665217647712
  0
LINE
  5
229
100
AcDbEntity
  8
0
  6
ByLayer
 62
  256
370
   -1
100
AcDbLine
 10
25.70755858361444
 20
25.32628394875891
 11
28.68263542412602
 21
25.32628394875891
  0
LINE
  5
22A
100
AcDbEntity
  8
0
  6
ByLayer
 62
  256
370
   -1
100
AcDbLine
 10
26.45755858361444
 20
25.11652179220698
 11
26.20755858361444
 21
25.11652179220698
  0
LINE
  5
22B
100
AcDbEntity
  8
0
  6
ByLayer
 62
  256
370
   -1
100
AcDbLine
 10
27.62703338009305
 20
25.11652179220698
 11
27.37703338009305
 21
25.11652179220698
  0
LINE
  5
22C
100
AcDbEntity
  8
0
  6
ByLayer
 62
  256
370
   -1
100
AcDbLine
 10
27.62703338009305
 20
24.99152177093586
 11
27.62703338009305
 21
25.11652179220698
  0
LINE
  5
22D
100
AcDbEntity
  8
0
  6
ByLayer
 62
  256
370
   -1
100
AcDbLine
 10
27.37703338009305
 20
25.11652179220698
 11
27.37703338009305
 21
24.99152177239584
  0
LINE
  5
22E
100
AcDbEntity
  8
0
  6
ByLayer
 62
  256
370
   -1
100
AcDbLine
 10
26.45755858361444
 20
24.99152177776553
 11
26.45755858361444
 21
25.11652179220698
  0
LINE
  5
22F
100
AcDbEntity
  8
0
  6
ByLayer
 62
  256
370
   -1
100
AcDbLine
 10
26.20755858361444
 20
25.11652179220698
 11
26.20755858361444
 21
24.99152177922551
  0
LINE
  5
230
100
AcDbEntity
  8
0
  6
ByLayer
 62
  256
370
   -1
100
AcDbLine
 10
26.20755858361444
 20
24.99152177922551
 11
25.95755858361444
 21
24.9915217806855
  0
LINE
  5
231
100
AcDbEntity
  8
0
  6
ByLayer
 62
  256
370
   -1
100
AcDbLine
 10
28.68263542412602
 20
24.9915217647712
 11
27.62703338009305
 21
24.99152177093586
  0
LINE
  5
232
100
AcDbEntity
  8
0
  6
ByLayer
 62
  256
370
   -1
100
AcDbLine
 10
27.37703338009305
 20
24.99152177239584
 11
26.45755858361444
 21
24.99152177776553
  0
LINE
  5
233
100
AcDbEntity
  8
0
  6
ByLayer
 62
  256
370
   -1
100
AcDbLine
 10
28.68263542412602
 20
24.9915217647712
 11
28.68263542412602
 21
25.32628394875891
  0
LINE
  5
234
100
AcDbEntity
  8
0
  6
ByLayer
 62
  256
370
   -1
100
AcDbLine
 10
28.68263542412602
 20
24.6165217647712
 11
28.68263542412602
 21
24.8665217647712
  0
MTEXT
  5
235
100
AcDbEntity
  8
0
  6
ByLayer
 62
  256
370
   -1
100
AcDbMText
 10
27.72040022487388
 20
25.28691039502012
 30
0
 40
0.125
 41
0.4548610972222222
 71
    1
 72
    1
  1
F2 (2)
  7
standard
210
0
220
0
230
1
 50
0
 73
    2
 44
1
  0
MTEXT
  5
236
100
AcDbEntity
  8
Bulkheads
  6
ByLayer
 62
  256
370
   -1
100
AcDbMText
 10
33.69693875369495
 20
26.72554873968959
 30
0
 40
0.25
 41
0.2777777777777778
 71
    1
 72
    1
  1
P1
  7
standard
210
0
220
0
230
1
 50
0
 73
    2
 44
1
  0
LWPOLYLINE
  5
237
100
AcDbEntity
  8
Bulkheads
  6
ByLayer
 62
  256
370
   -1
100
AcDbPolyline
 90
   10
 70
    0
 43
0
 10
32.17465999109373
 20
28.31269259183536
 10
32.4246599911024
 20
28.31269259183536
 10
32.42465793584512
 20
28.55954920392647
 10
33.83014031806034
 20
28.55954920392647
 10
33.83013826280305
 20
28.31269259183536
 10
34.08013826281172
 20
28.31269259183536
 10
34.08012206877636
 20
26.36762969211678
 10
32.17467618512909
 20
26.36762969211678
 10
32.17465999109373
 20
28.31269259183536
 10
32.4246599911024
 20
28.31269259183536
  0
ELLIPSE
  5
238
100
AcDbEntity
  8
Bulkheads
  6
ByLayer
 62
  256
370
   -1
100
AcDbEllipse
 10
33.12739912695272
 20
26.68878495895651
 30
0
 11
0.4804341387879553
 21
0.003428527049125663
 31
0
 40
0.4887993886060144
 41
0
 42
6.283185307179586
  0
ELLIPSE
  5
239
100
AcDbEntity
  8
Bulkheads
  6
ByLayer
 62
  256
370
   -1
100
AcDbEllipse
 10
33.8785428359912
 20
27.55573145514477
 30
0
 11
0.005809841910580345
 21
0.3071490189531518
 31
0
 40
0.4213191963300171
 41
0
 42
6.283185307179586
  0
ELLIPSE
  5
23A
100
AcDbEntity
  8
Bulkheads
  6
ByLayer
 62
  256
370
   -1
100
AcDbEllipse
 10
32.37625541791424
 20
27.55573145514477
 30
0
 11
-0.005809841910580094
 21
0.3071490189531527
 31
0
 40
0.4213191963300172
 41
0
 42
6.283185307179586
  0
LINE
  5
23B
100
AcDbEntity
  8
Bulkheads
  6
ByLayer
 62
  256
370
   -1
100
AcDbLine
 10
33.12739912695272
 20
27.55720740923119
 11
34.08013197285895
 21
27.55720740923119
  0
LINE
  5
23C
100
AcDbEntity
  8
Bulkheads
  6
ByLayer
 62
  256
370
   -1
100
AcDbLine
 10
33.12739912695272
 20
28.55954920392647
 11
33.12739912695272
 21
26.36762969211678
  0
LINE
  5
23D
100
AcDbEntity
  8
Bulkheads
  6
ByLayer
 62
  256
370
   -1
100
AcDbLine
 10
33.12739912695272
 20
27.55720740923119
 11
32.1746662810465
 21
27.55720740923119
  0
LWPOLYLINE
  5
23E
100
AcDbEntity
  8
0
  6
ByLayer
 62
  256
370
   -1
100
AcDbPolyline
 90
   41
 70
    0
 43
0
 10
31.49065838650108
 20
27.85149203449619
 10
31.43060587609164
 20
27.85045020718119
 10
31.37124371052036
 20
27.84714413129357
 10
31.31258466559423
 20
27.84160684167866
 10
31.25464151712022
 20
27.83387137318166
 10
31.19742704090529
 20
27.8239707606479
 10
31.14095401275645
 20
27.8119380389227
 10
31.08523520848061
 20
27.79780624285124
 10
31.03028340388485
 20
27.78160840727889
 10
30.97611137477606
 20
27.76337756705089
 10
30.92273189696128
 20
27.74314675701252
 10
30.87015774624745
 20
27.72094901200906
 10
30.81840169844156
 20
27.69681736688577
 10
30.76747652935056
 20
27.67078485648799
 10
30.7173950147815
 20
27.64288451566096
 10
30.66816993054128
 20
27.61314937924998
 10
30.61981405243692
 20
27.58161248210029
 10
30.57234015627536
 20
27.54830685905721
 10
30.52576101786363
 20
27.51326554496602
 10
30.48008941300867
 20
27.47652157467196
 10
30.4353381175175
 20
27.43810798302036
 10
30.39964079603984
 20
27.40412907298557
 10
30.3673283161864
 20
27.36860652220871
 10
30.33822385440902
 20
27.33162499525394
 10
30.31215058715948
 20
27.29326915668537
 10
30.28893169088969
 20
27.25362367106717
 10
30.26839034205144
 20
27.2127732029634
 10
30.25034971709658
 20
27.17080241693821
 10
30.23463299247696
 20
27.12779597755573
 10
30.22106334464439
 20
27.08383854938009
 10
30.20946395005073
 20
27.03901479697547
 10
30.19965798514778
 20
26.99340938490591
 10
30.19146862638741
 20
26.94710697773563
 10
30.18471905022144
 20
26.90019224002867
 10
30.17923243310173
 20
26.85274983634924
 10
30.17483195148008
 20
26.80486443126143
 10
30.17134078180838
 20
26.75662068932935
 10
30.16858210053838
 20
26.70810327511717
 10
30.166379084122
 20
26.65939685318902
 10
30.16455490901103
 20
26.61058608810898
 10
30.16293275165732
 20
26.5617556444412
  0
MTEXT
  5
23F
100
AcDbEntity
  8
0
  6
ByLayer
 62
  256
370
   -1
100
AcDbMText
 10
30.75779432050586
 20
25.77273457840737
 30
0
 40
0.1
 41
2.138888888888915
 71
    1
 72
    5
  1
{1/32" ply bolt reinforcement }
  7
standard
210
0
220
0
230
1
 50
90
 73
    1
 44
1
  0
LWPOLYLINE
  5
240
100
AcDbEntity
  8
0
  6
ByLayer
 62
  256
370
   -1
100
AcDbPolyline
 90
    4
 70
    0
 43
0
 10
30.16293275165732
 20
26.5617556444412
 10
31.6565390010881
 20
26.56171438729748
 10
31.6565390010881
 20
27.86171438729746
 10
31.46063213129635
 20
27.85097112083869
  0
LWPOLYLINE
  5
241
100
AcDbEntity
  8
0
  6
ByLayer
 62
  256
370
   -1
100
AcDbPolyline
 90
   41
 70
    0
 43
0
 10
31.49058713297935
 20
25.27194590614263
 10
31.4305346802173
 20
25.27299105105739
 10
31.3711726973808
 20
25.27630040640322
 10
31.3125139584518
 20
25.281840936629
 10
31.2545712374122
 20
25.28957960618384
 10
31.197357308244
 20
25.29948337951662
 10
31.14088494492911
 20
25.31151922107628
 10
31.08516692144949
 20
25.32565409531188
 10
31.03021601178711
 20
25.34185496667234
 10
30.97604498992389
 20
25.36008879960663
 10
30.92266662984179
 20
25.38032255856376
 10
30.87009370552277
 20
25.40252320799265
 10
30.81833899094875
 20
25.42665771234232
 10
30.76741526010169
 20
25.45269303606169
 10
30.71733528696354
 20
25.48059614359975
 10
30.66811184551627
 20
25.51033399940547
 10
30.61975770974179
 20
25.54187356792783
 10
30.57228565362206
 20
25.57518181361581
 10
30.52570845113905
 20
25.61022570091835
 10
30.48003887627467
 20
25.64697219428446
 10
30.43528970301091
 20
25.68538825816307
 10
30.39959425875285
 20
25.71936914024477
 10
30.36728374139227
 20
25.75489347607059
 10
30.338181322704
 20
25.79187661084512
 10
30.31211017446283
 20
25.83023388977297
 10
30.28889346844359
 20
25.86988065805877
 10
30.26835437642108
 20
25.91073226090715
 10
30.2503160701701
 20
25.95270404352274
 10
30.2346017214655
 20
25.99571135111016
 10
30.22103450208206
 20
26.03966952887399
 10
30.20943758379459
 20
26.08449392201884
 10
30.19963413837791
 20
26.13009987574941
 10
30.19144733760684
 20
26.17640273527022
 10
30.18470035325618
 20
26.22331784578595
 10
30.17921635710075
 20
26.27076055250118
 10
30.17481852091535
 20
26.31864620062057
 10
30.17133001647481
 20
26.36689013534872
 10
30.16857401555392
 20
26.41540770189023
 10
30.16637368992749
 20
26.4641142454497
 10
30.16455221137035
 20
26.51292511123183
 10
30.16293275165732
 20
26.5617556444412
  0
LWPOLYLINE
  5
242
100
AcDbEntity
  8
0
  6
ByLayer
 62
  256
370
   -1
100
AcDbPolyline
 90
    4
 70
    0
 43
0
 10
30.16293275165732
 20
26.5617556444412
 10
31.6565390010881
 20
26.56171438729748
 10
31.65646718257927
 20
25.2617143892813
 10
31.46056090659833
 20
25.27246847860002
  0
ARC
  5
243
100
AcDbEntity
  8
0
  6
ByLayer
 62
  256
370
   -1
100
AcDbCircle
 10
39.543609442295
 20
26.08783196683611
 40
0.09375
100
AcDbArc
 50
180
 51
270
  0
LINE
  5
244
100
AcDbEntity
  8
0
  6
ByLayer
 62
  256
370
   -1
100
AcDbLine
 10
39.543609442295
 20
25.99408196683611
 11
39.606109442295
 21
25.99408196683611
  0
ARC
  5
245
100
AcDbEntity
  8
0
  6
ByLayer
 62
  256
370
   -1
100
AcDbCircle
 10
39.606109442295
 20
26.08783196683611
 40
0.09375
100
AcDbArc
 50
270
 51
360
  0
LINE
  5
246
100
AcDbEntity
  8
0
  6
ByLayer
 62
  256
370
   -1
100
AcDbLine
 10
39.699859442295
 20
26.08783196683611
 11
39.699859442295
 21
29.90033196683609
  0
ARC
  5
247
100
AcDbEntity
  8
0
  6
ByLayer
 62
  256
370
   -1
100
AcDbCircle
 10
39.606109442295
 20
29.90033196683609
 40
0.09375
100
AcDbArc
 50
360
 51
90
  0
LINE
  5
248
100
AcDbEntity
  8
0
  6
ByLayer
 62
  256
370
   -1
100
AcDbLine
 10
39.606109442295
 20
29.99408196683609
 11
39.543609442295
 21
29.99408196683609
  0
LINE
  5
249
100
AcDbEntity
  8
0
  6
ByLayer
 62
  256
370
   -1
100
AcDbLine
 10
39.449859442295
 20
29.90033196683609
 11
39.449859442295
 21
26.08783196683611
  0
ARC
  5
24A
100
AcDbEntity
  8
0
  6
ByLayer
 62
  256
370
   -1
100
AcDbCircle
 10
39.543609442295
 20
29.90033196683609
 40
0.09375
100
AcDbArc
 50
90
 51
180
  0
LINE
  5
24B
100
AcDbEntity
  8
0
  6
ByLayer
 62
  256
370
   -1
100
AcDbLine
 10
38.75527378691153
 20
16.1186132010613
 11
38.75527378691153
 21
15.9936132010613
  0
LINE
  5
24C
100
AcDbEntity
  8
0
  6
ByLayer
 62
  256
370
   -1
100
AcDbLine
 10
41.49377318118031
 20
16.42382747529797
 11
39.00527378691153
 21
16.42382747529797
  0
LINE
  5
24D
100
AcDbEntity
  8
0
  6
ByLayer
 62
  256
370
   -1
100
AcDbLine
 10
38.33678437415367
 20
7.005232899950511
 11
38.33678437415367
 21
7.005232899950511
  0
LINE
  5
24E
100
AcDbEntity
  8
0
  6
ByLayer
 62
  256
370
   -1
100
AcDbLine
 10
38.75527378691153
 20
8.290036963820977
 11
38.75527378691153
 21
8.16759580574217
  0
LINE
  5
24F
100
AcDbEntity
  8
0
  6
ByLayer
 62
  256
370
   -1
100
AcDbLine
 10
38.75527378691153
 20
8.16759580574217
 11
38.75527378691153
 21
8.16759580574217
  0
LINE
  5
250
100
AcDbEntity
  8
Bulkheads
  6
ByLayer
 62
  256
370
   -1
100
AcDbLine
 10
38.75527378691153
 20
16.29882747531115
 11
38.75527378691153
 21
16.42382747531115
  0
LINE
  5
251
100
AcDbEntity
  8
0
  6
ByLayer
 62
  256
370
   -1
100
AcDbLine
 10
38.75527378691153
 20
32.73520435146055
 11
40.14316720461888
 21
32.73520435146054
  0
LINE
  5
252
100
AcDbEntity
  8
0
  6
ByLayer
 62
  256
370
   -1
100
AcDbLine
 10
41.76620121035186
 20
16.29882747529797
 11
38.75527378691153
 21
16.29882747529797
  0
LINE
  5
253
100
AcDbEntity
  8
0
  6
ByLayer
 62
  256
370
   -1
100
AcDbLine
 10
41.75385781405941
 20
16.42382747529797
 11
38.75527550935812
 21
16.42382747529797
  0
LINE
  5
254
100
AcDbEntity
  8
0
  6
ByLayer
 62
  256
370
   -1
100
AcDbLine
 10
38.75527378691152
 20
1.369497893297355
 11
38.75527378691153
 21
32.73524352563454
  0
LINE
  5
255
100
AcDbEntity
  8
0
  6
ByLayer
 62
  256
370
   -1
100
AcDbLine
 10
38.75527378691152
 20
2.31384327004938
 11
41.17854540483555
 21
2.31384327004938
  0
LINE
  5
256
100
AcDbEntity
  8
0
  6
ByLayer
 62
  256
370
   -1
100
AcDbLine
 10
38.75527378691153
 20
2.437269709689997
 11
40.95033668662861
 21
2.43884327004938
  0
LINE
  5
257
100
AcDbEntity
  8
0
  6
ByLayer
 62
  256
370
   -1
100
AcDbLine
 10
38.75145345811336
 20
8.170345284200803
 11
41.6029467003268
 21
8.170345284200803
  0
LINE
  5
258
100
AcDbEntity
  8
0
  6
ByLayer
 62
  256
370
   -1
100
AcDbLine
 10
41.60221490284242
 20
8.290928449677811
 11
38.75145345811336
 21
8.292791435484741
  0
MTEXT
  5
259
100
AcDbEntity
  8
0
  6
ByLayer
 62
  256
370
   -1
100
AcDbMText
 10
39.45914505091653
 20
26.831231383647
 30
0
 40
0.125
 41
1.135416795238466
 71
    1
 72
    1
  1
Popsicle stick
  7
iso
210
0
220
0
230
1
 50
90
 73
    2
 44
1
  0
MTEXT
  5
25A
100
AcDbEntity
  8
Bulkheads
  6
ByLayer
 62
  256
370
   -1
100
AcDbMText
 10
18.6863716963769
 20
4.148587264660525
 30
0
 40
0.25
 41
0.3333333333333488
 71
    1
 72
    1
  1
P3
  7
standard
210
0
220
0
230
1
 50
0
 73
    2
 44
1
  0
MTEXT
  5
25B
100
AcDbEntity
  8
Bulkheads
  6
ByLayer
 62
  256
370
   -1
100
AcDbMText
 10
28.54692291735108
 20
27.4699786553022
 30
0
 40
0.125
 41
0.1805555555555556
 71
    1
 72
    1
  1
P4
  7
standard
210
0
220
0
230
1
 50
90
 73
    2
 44
1
  0
MTEXT
  5
25C
100
AcDbEntity
  8
0
  6
ByLayer
 62
  256
370
   -1
100
AcDbMText
 10
7.11109719581151
 20
19.74903479429992
 30
0
 40
0.125
 41
1.67361130396883
 71
    1
 72
    1
  1
Cross-section at P1
  7
standard
210
0
220
0
230
1
 50
0
 73
    2
 44
1
  0
LINE
  5
25D
100
AcDbEntity
  8
KFM3
  6
ByLayer
 62
  256
370
   -1
100
AcDbLine
 10
11.1404
 20
4.6068
 11
18.5648
 21
4.6068
  0
LINE
  5
25E
100
AcDbEntity
  8
KFM3
  6
ByLayer
 62
  256
370
   -1
100
AcDbLine
 10
16.55556730954231
 20
4.6068
 11
16.55556730954231
 21
4.8568
  0
LINE
  5
25F
100
AcDbEntity
  8
KFM3
  6
ByLayer
 62
  256
370
   -1
100
AcDbLine
 10
14.0585914542816
 20
4.6068
 11
14.0585914542816
 21
4.8568
  0
LINE
  5
260
100
AcDbEntity
  8
KFM3
  6
ByLayer
 62
  256
370
   -1
100
AcDbLine
 10
14.3085914542816
 20
4.6068
 11
14.3085914542816
 21
4.8568
  0
LINE
  5
261
100
AcDbEntity
  8
KFM3
  6
ByLayer
 62
  256
370
   -1
100
AcDbLine
 10
14.0585914542816
 20
4.8568
 11
16.55556730954231
 21
4.8568
  0
LINE
  5
262
100
AcDbEntity
  8
KFM3
  6
ByLayer
 62
  256
370
   -1
100
AcDbLine
 10
11.05729790856909
 20
4.597205190933173
 11
11.3906455556906
 21
4.668913696418612
  0
LINE
  5
263
100
AcDbEntity
  8
KFM3
  6
ByLayer
 62
  256
370
   -1
100
AcDbLine
 10
11.3906455556906
 20
4.668913696418612
 11
11.74337387997036
 21
4.717365389314184
  0
LINE
  5
264
100
AcDbEntity
  8
KFM3
  6
ByLayer
 62
  256
370
   -1
100
AcDbLine
 10
11.74337387997036
 20
4.717365389314184
 11
12.0250397213366
 21
4.754188675914818
  0
LINE
  5
265
100
AcDbEntity
  8
KFM3
  6
ByLayer
 62
  256
370
   -1
100
AcDbLine
 10
12.0250397213366
 20
4.754188675914818
 11
12.45306714455663
 21
4.77357710534391
  0
LINE
  5
266
100
AcDbEntity
  8
KFM3
  6
ByLayer
 62
  256
370
   -1
100
AcDbLine
 10
12.45306714455663
 20
4.77357710534391
 11
12.77479026151865
 21
4.791205769287031
  0
LINE
  5
267
100
AcDbEntity
  8
KFM3
  6
ByLayer
 62
  256
370
   -1
100
AcDbLine
 10
12.77479026151865
 20
4.791205769287031
 11
13.11854920840957
 21
4.81103801622305
  0
LINE
  5
268
100
AcDbEntity
  8
KFM3
  6
ByLayer
 62
  256
370
   -1
100
AcDbLine
 10
13.11854920840957
 20
4.81103801622305
 11
13.50603691849144
 21
4.835432467465075
  0
LINE
  5
269
100
AcDbEntity
  8
KFM3
  6
ByLayer
 62
  256
370
   -1
100
AcDbLine
 10
13.50603691849144
 20
4.835432467465075
 11
13.66198066651224
 21
4.850912177746543
  0
LINE
  5
26A
100
AcDbEntity
  8
KFM3
  6
ByLayer
 62
  256
370
   -1
100
AcDbLine
 10
11.0621501588765
 20
4.854075169190334
 11
11.39549780599801
 21
4.925783674675773
  0
LINE
  5
26B
100
AcDbEntity
  8
KFM3
  6
ByLayer
 62
  256
370
   -1
100
AcDbLine
 10
11.39549780599801
 20
4.925783674675773
 11
11.74822613027776
 21
4.974235367571345
  0
LINE
  5
26C
100
AcDbEntity
  8
KFM3
  6
ByLayer
 62
  256
370
   -1
100
AcDbLine
 10
11.74822613027776
 20
4.974235367571345
 11
12.02989197164401
 21
5.011058654171978
  0
LINE
  5
26D
100
AcDbEntity
  8
KFM3
  6
ByLayer
 62
  256
370
   -1
100
AcDbLine
 10
12.02989197164401
 20
5.011058654171978
 11
12.45791939486404
 21
5.030447083601071
  0
LINE
  5
26E
100
AcDbEntity
  8
KFM3
  6
ByLayer
 62
  256
370
   -1
100
AcDbLine
 10
12.45791939486404
 20
5.030447083601071
 11
12.77964251182606
 21
5.048075747544202
  0
LINE
  5
26F
100
AcDbEntity
  8
KFM3
  6
ByLayer
 62
  256
370
   -1
100
AcDbLine
 10
12.77964251182606
 20
5.048075747544202
 11
13.12340145871698
 21
5.067907994480211
  0
LINE
  5
270
100
AcDbEntity
  8
KFM3
  6
ByLayer
 62
  256
370
   -1
100
AcDbLine
 10
13.12340145871698
 20
5.067907994480211
 11
13.50834985640413
 21
5.086617524782084
  0
LINE
  5
271
100
AcDbEntity
  8
KFM3
  6
ByLayer
 62
  256
370
   -1
100
AcDbLine
 10
13.50834985640413
 20
5.086617524782084
 11
13.63690385097286
 21
5.095021719981857
  0
LINE
  5
272
100
AcDbEntity
  8
KFM3
  6
ByLayer
 62
  256
370
   -1
100
AcDbLine
 10
10.69999721974461
 20
4.714213866204697
 11
11.0621501588765
 21
4.854075169190334
  0
LINE
  5
273
100
AcDbEntity
  8
KFM3
  6
ByLayer
 62
  256
370
   -1
100
AcDbLine
 10
10.71610381142775
 20
4.345836240065334
 11
18.56482312385059
 21
4.343645959826127
  0
LINE
  5
274
100
AcDbEntity
  8
KFM3
  6
ByLayer
 62
  256
370
   -1
100
AcDbLine
 10
13.63690385097286
 20
5.095021719981857
 11
14.5585914542816
 21
5.095021719981857
  0
LINE
  5
275
100
AcDbEntity
  8
KFM3
  6
ByLayer
 62
  256
370
   -1
100
AcDbLine
 10
13.66198066651224
 20
4.850912177746543
 11
14.0585914542816
 21
4.8568
  0
LINE
  5
276
100
AcDbEntity
  8
KFM3
  6
ByLayer
 62
  256
370
   -1
100
AcDbLine
 10
14.5585914542816
 20
5.095021719981857
 11
14.5585914542816
 21
4.8568
  0
LINE
  5
277
100
AcDbEntity
  8
0
  6
ByLayer
 62
  256
370
   -1
100
AcDbLine
 10
16.55556730954231
 20
13.2836150311932
 11
16.55556730954231
 21
34.89068170958869
  0
MTEXT
  5
278
100
AcDbEntity
  8
0
  6
ByLayer
 62
  256
370
   -1
100
AcDbMText
 10
14.14833880343186
 20
22.774041011128
 30
0
 40
0.125
 41
1.930555812699173
 71
    1
 72
    1
  1
1/4" spruce/bass spar
  7
standard
210
0
220
0
230
1
 50
90
 73
    2
 44
1
  0
MTEXT
  5
279
100
AcDbEntity
  8
0
  6
ByLayer
 62
  256
370
   -1
100
AcDbMText
 10
14.34458313596296
 20
20.9413648489409
 30
0
 40
0.125
 41
2.899305555555585
 71
    1
 72
    1
  1
KFM top and middle layer overlap
  7
standard
210
0
220
0
230
1
 50
90
 73
    2
 44
1
  0
MTEXT
  5
27A
100
AcDbEntity
  8
0
  6
ByLayer
 62
  256
370
   -1
100
AcDbMText
 10
16.37653129131538
 20
27.38079480509574
 30
0
 40
0.125
 41
2.180555555555567
 71
    1
 72
    1
  1
Rear of KFM Middle layer
  7
standard
210
0
220
0
230
1
 50
90
 73
    2
 44
1
  0
LINE
  5
27B
100
AcDbEntity
  8
0
  6
ByLayer
 62
  256
370
   -1
100
AcDbLine
 10
18.94866197599173
 20
5.625608832659656
 11
19.66804929474616
 21
4.841476655217325
  0
MTEXT
  5
27C
100
AcDbEntity
  8
Hardware
  6
ByLayer
 62
  256
370
   -1
100
AcDbMText
 10
10.99193462610356
 20
3.818755343911872
 30
0
 40
0.0625
 41
0.8593750321429604
 71
    1
 72
    1
  1
3/32" music wire LG
  7
iso
210
0
220
0
230
1
 50
360
 73
    2
 44
1
  0
CIRCLE
  5
27D
100
AcDbEntity
  8
Hardware
  6
ByLayer
 62
  256
370
   -1
100
AcDbCircle
 10
10.55017013326055
 20
1.542931386771517
 40
0.046875
  0
LINE
  5
27E
100
AcDbEntity
  8
0
  6
ByLayer
 62
  256
370
   -1
100
AcDbLine
 10
33.98122988655941
 20
7.48340132076223
 11
34.04372988655941
 21
7.48340132076223
  0
LINE
  5
27F
100
AcDbEntity
  8
0
  6
ByLayer
 62
  256
370
   -1
100
AcDbLine
 10
33.98122988655941
 20
10.48340132076223
 11
34.04372988655941
 21
10.48340132076223
  0
LINE
  5
280
100
AcDbEntity
  8
0
  6
ByLayer
 62
  256
370
   -1
100
AcDbLine
 10
33.32336340218905
 20
16.28494489665354
 11
33.26086340218905
 21
16.28494489665354
  0
MTEXT
  5
281
100
AcDbEntity
  8
0
  6
ByLayer
 62
  256
370
   -1
100
AcDbMText
 10
32.4636945666218
 20
13.54902078772619
 30
0
 40
0.25
 41
2.076388888888951
 71
    1
 72
    1
  1
Carbon Fibre
  7
standard
210
0
220
0
230
1
 50
90
 73
    2
 44
1
  0
LINE
  5
282
100
AcDbEntity
  8
0
  6
ByLayer
 62
  256
370
   -1
100
AcDbLine
 10
33.32336340218905
 20
13.2836150311932
 11
33.32336340218905
 21
16.28494489665354
  0
LINE
  5
283
100
AcDbEntity
  8
0
  6
ByLayer
 62
  256
370
   -1
100
AcDbLine
 10
33.26086340218905
 20
16.28494489665354
 11
33.26086340218905
 21
13.2836150311932
  0
LINE
  5
284
100
AcDbEntity
  8
0
  6
ByLayer
 62
  256
370
   -1
100
AcDbLine
 10
38.76671389008675
 20
1.34946347603255
 11
38.78689516733093
 21
1.320388260684536
  0
LINE
  5
285
100
AcDbEntity
  8
0
  6
ByLayer
 62
  256
370
   -1
100
AcDbLine
 10
38.78689516733093
 20
1.320388260684536
 11
38.80794921522235
 21
1.291609435953567
  0
LINE
  5
286
100
AcDbEntity
  8
0
  6
ByLayer
 62
  256
370
   -1
100
AcDbLine
 10
38.80794921522235
 20
1.291609435953567
 11
38.82989965118165
 21
1.263216459778708
  0
LINE
  5
287
100
AcDbEntity
  8
0
  6
ByLayer
 62
  256
370
   -1
100
AcDbLine
 10
38.82989965118165
 20
1.263216459778708
 11
38.85277009262948
 21
1.235298790099025
  0
LINE
  5
288
100
AcDbEntity
  8
0
  6
ByLayer
 62
  256
370
   -1
100
AcDbLine
 10
38.85277009262948
 20
1.235298790099025
 11
38.87658415698648
 21
1.207945884853582
  0
LINE
  5
289
100
AcDbEntity
  8
0
  6
ByLayer
 62
  256
370
   -1
100
AcDbLine
 10
38.87658415698648
 20
1.207945884853582
 11
38.90136223622493
 21
1.181244228454044
  0
LINE
  5
28A
100
AcDbEntity
  8
0
  6
ByLayer
 62
  256
370
   -1
100
AcDbLine
 10
38.90136223622493
 20
1.181244228454044
 11
38.92708531335828
 21
1.155243974357362
  0
LINE
  5
28B
100
AcDbEntity
  8
0
  6
ByLayer
 62
  256
370
   -1
100
AcDbLine
 10
38.92708531335828
 20
1.155243974357362
 11
38.95370800733528
 21
1.129970971099215
  0
LINE
  5
28C
100
AcDbEntity
  8
0
  6
ByLayer
 62
  256
370
   -1
100
AcDbLine
 10
38.95370800733528
 20
1.129970971099215
 11
38.98118445352654
 21
1.105450621406602
  0
LINE
  5
28D
100
AcDbEntity
  8
0
  6
ByLayer
 62
  256
370
   -1
100
AcDbLine
 10
38.98118445352654
 20
1.105450621406602
 11
39.00946878730262
 21
1.081708328006525
  0
LINE
  5
28E
100
AcDbEntity
  8
0
  6
ByLayer
 62
  256
370
   -1
100
AcDbLine
 10
39.00946878730262
 20
1.081708328006525
 11
39.03851514403416
 21
1.058769493625982
  0
LINE
  5
28F
100
AcDbEntity
  8
0
  6
ByLayer
 62
  256
370
   -1
100
AcDbLine
 10
39.03851514403416
 20
1.058769493625982
 11
39.06827765909173
 21
1.036659520991975
  0
LINE
  5
290
100
AcDbEntity
  8
0
  6
ByLayer
 62
  256
370
   -1
100
AcDbLine
 10
39.06827765909173
 20
1.036659520991975
 11
39.0987104678459
 21
1.015403812831503
  0
LINE
  5
291
100
AcDbEntity
  8
0
  6
ByLayer
 62
  256
370
   -1
100
AcDbLine
 10
39.0987104678459
 20
1.015403812831503
 11
39.12976770566733
 21
0.9950277718715664
  0
LINE
  5
292
100
AcDbEntity
  8
0
  6
ByLayer
 62
  256
370
   -1
100
AcDbLine
 10
39.12976770566733
 20
0.9950277718715664
 11
39.16140350792656
 21
0.9755568008391649
  0
LINE
  5
293
100
AcDbEntity
  8
0
  6
ByLayer
 62
  256
370
   -1
100
AcDbLine
 10
39.16140350792656
 20
0.9755568008391649
 11
39.19357200999421
 21
0.9570163024612984
  0
LINE
  5
294
100
AcDbEntity
  8
0
  6
ByLayer
 62
  256
370
   -1
100
AcDbLine
 10
39.19357200999421
 20
0.9570163024612984
 11
39.22622734724087
 21
0.9394316794649674
  0
LINE
  5
295
100
AcDbEntity
  8
0
  6
ByLayer
 62
  256
370
   -1
100
AcDbLine
 10
39.22622734724087
 20
0.9394316794649674
 11
39.25932365503714
 21
0.9228283345771717
  0
LINE
  5
296
100
AcDbEntity
  8
0
  6
ByLayer
 62
  256
370
   -1
100
AcDbLine
 10
39.25932365503714
 20
0.9228283345771717
 11
39.29281506875359
 21
0.9072316705249113
  0
LINE
  5
297
100
AcDbEntity
  8
0
  6
ByLayer
 62
  256
370
   -1
100
AcDbLine
 10
39.29281506875359
 20
0.9072316705249113
 11
39.32665572376084
 21
0.8926670900351863
  0
LINE
  5
298
100
AcDbEntity
  8
0
  6
ByLayer
 62
  256
370
   -1
100
AcDbLine
 10
39.32665572376084
 20
0.8926670900351863
 11
39.3607997554295
 21
0.8791599958349969
  0
LINE
  5
299
100
AcDbEntity
  8
0
  6
ByLayer
 62
  256
370
   -1
100
AcDbLine
 10
39.3607997554295
 20
0.8791599958349969
 11
39.39520129913014
 21
0.866735790651343
  0
LINE
  5
29A
100
AcDbEntity
  8
0
  6
ByLayer
 62
  256
370
   -1
100
AcDbLine
 10
39.39520129913014
 20
0.866735790651343
 11
39.42981449023334
 21
0.8554198772112246
  0
LINE
  5
29B
100
AcDbEntity
  8
0
  6
ByLayer
 62
  256
370
   -1
100
AcDbLine
 10
39.42981449023334
 20
0.8554198772112246
 11
39.46459346410973
 21
0.8452376582416418
  0
LINE
  5
29C
100
AcDbEntity
  8
0
  6
ByLayer
 62
  256
370
   -1
100
AcDbLine
 10
39.46459346410973
 20
0.8452376582416418
 11
39.49949235612989
 21
0.8362145364695943
  0
LINE
  5
29D
100
AcDbEntity
  8
0
  6
ByLayer
 62
  256
370
   -1
100
AcDbLine
 10
39.49949235612989
 20
0.8362145364695943
 11
39.53446530166443
 21
0.8283759146220829
  0
LINE
  5
29E
100
AcDbEntity
  8
0
  6
ByLayer
 62
  256
370
   -1
100
AcDbLine
 10
39.53446530166443
 20
0.8283759146220829
 11
39.56946643608391
 21
0.821747195426107
  0
LINE
  5
29F
100
AcDbEntity
  8
0
  6
ByLayer
 62
  256
370
   -1
100
AcDbLine
 10
39.56946643608391
 20
0.821747195426107
 11
39.60444989475896
 21
0.8163537816086668
  0
LINE
  5
2A0
100
AcDbEntity
  8
0
  6
ByLayer
 62
  256
370
   -1
100
AcDbLine
 10
39.60444989475896
 20
0.8163537816086668
 11
39.63936981306016
 21
0.8122210758967623
  0
LINE
  5
2A1
100
AcDbEntity
  8
0
  6
ByLayer
 62
  256
370
   -1
100
AcDbLine
 10
39.63936981306016
 20
0.8122210758967623
 11
39.67418032635811
 21
0.8093744810173937
  0
LINE
  5
2A2
100
AcDbEntity
  8
0
  6
ByLayer
 62
  256
370
   -1
100
AcDbLine
 10
39.67418032635811
 20
0.8093744810173937
 11
39.7088355700234
 21
0.807839399697561
  0
LINE
  5
2A3
100
AcDbEntity
  8
0
  6
ByLayer
 62
  256
370
   -1
100
AcDbLine
 10
39.7088355700234
 20
0.807839399697561
 11
39.74328967942664
 21
0.8076412346642642
  0
LINE
  5
2A4
100
AcDbEntity
  8
0
  6
ByLayer
 62
  256
370
   -1
100
AcDbLine
 10
39.74328967942664
 20
0.8076412346642642
 11
39.77749761904705
 21
0.808804350259993
  0
LINE
  5
2A5
100
AcDbEntity
  8
0
  6
ByLayer
 62
  256
370
   -1
100
AcDbLine
 10
39.77749761904705
 20
0.808804350259993
 11
39.81143431862844
 21
0.8113281061172481
  0
LINE
  5
2A6
100
AcDbEntity
  8
0
  6
ByLayer
 62
  256
370
   -1
100
AcDbLine
 10
39.81143431862844
 20
0.8113281061172481
 11
39.84509518388269
 21
0.815186217547932
  0
LINE
  5
2A7
100
AcDbEntity
  8
0
  6
ByLayer
 62
  256
370
   -1
100
AcDbLine
 10
39.84509518388269
 20
0.815186217547932
 11
39.87847655179152
 21
0.8203512335317301
  0
LINE
  5
2A8
100
AcDbEntity
  8
0
  6
ByLayer
 62
  256
370
   -1
100
AcDbLine
 10
39.87847655179152
 20
0.8203512335317301
 11
39.91157475933662
 21
0.8267957030483287
  0
LINE
  5
2A9
100
AcDbEntity
  8
0
  6
ByLayer
 62
  256
370
   -1
100
AcDbLine
 10
39.91157475933662
 20
0.8267957030483287
 11
39.94438614349968
 21
0.8344921750774137
  0
LINE
  5
2AA
100
AcDbEntity
  8
0
  6
ByLayer
 62
  256
370
   -1
100
AcDbLine
 10
39.94438614349968
 20
0.8344921750774137
 11
39.97690704126241
 21
0.843413198598671
  0
LINE
  5
2AB
100
AcDbEntity
  8
0
  6
ByLayer
 62
  256
370
   -1
100
AcDbLine
 10
39.97690704126241
 20
0.843413198598671
 11
40.00913378960652
 21
0.8535313225917869
  0
LINE
  5
2AC
100
AcDbEntity
  8
0
  6
ByLayer
 62
  256
370
   -1
100
AcDbLine
 10
40.00913378960652
 20
0.8535313225917869
 11
40.04106272551369
 21
0.8648190960364471
  0
LINE
  5
2AD
100
AcDbEntity
  8
0
  6
ByLayer
 62
  256
370
   -1
100
AcDbLine
 10
40.04106272551369
 20
0.8648190960364471
 11
40.07269018596561
 21
0.8772490679123376
  0
LINE
  5
2AE
100
AcDbEntity
  8
0
  6
ByLayer
 62
  256
370
   -1
100
AcDbLine
 10
40.07269018596561
 20
0.8772490679123376
 11
40.10401250794401
 21
0.890793787199145
  0
LINE
  5
2AF
100
AcDbEntity
  8
0
  6
ByLayer
 62
  256
370
   -1
100
AcDbLine
 10
40.10401250794401
 20
0.890793787199145
 11
40.13502602843057
 21
0.9054258028765546
  0
LINE
  5
2B0
100
AcDbEntity
  8
0
  6
ByLayer
 62
  256
370
   -1
100
AcDbLine
 10
40.13502602843057
 20
0.9054258028765546
 11
40.16572708440698
 21
0.9211176639242525
  0
LINE
  5
2B1
100
AcDbEntity
  8
0
  6
ByLayer
 62
  256
370
   -1
100
AcDbLine
 10
40.16572708440698
 20
0.9211176639242525
 11
40.19611201285498
 21
0.9378419193219252
  0
LINE
  5
2B2
100
AcDbEntity
  8
0
  6
ByLayer
 62
  256
370
   -1
100
AcDbLine
 10
40.19611201285498
 20
0.9378419193219252
 11
40.22617715075621
 21
0.9555711180492581
  0
LINE
  5
2B3
100
AcDbEntity
  8
0
  6
ByLayer
 62
  256
370
   -1
100
AcDbLine
 10
40.22617715075621
 20
0.9555711180492581
 11
40.25591883509242
 21
0.9742778090859376
  0
LINE
  5
2B4
100
AcDbEntity
  8
0
  6
ByLayer
 62
  256
370
   -1
100
AcDbLine
 10
40.25591883509242
 20
0.9742778090859376
 11
40.28533340284528
 21
0.9939345414116497
  0
LINE
  5
2B5
100
AcDbEntity
  8
0
  6
ByLayer
 62
  256
370
   -1
100
AcDbLine
 10
40.28533340284528
 20
0.9939345414116497
 11
40.3144171909965
 21
1.01451386400608
  0
LINE
  5
2B6
100
AcDbEntity
  8
0
  6
ByLayer
 62
  256
370
   -1
100
AcDbLine
 10
40.3144171909965
 20
1.01451386400608
 11
40.34316653652777
 21
1.035988325848915
  0
LINE
  5
2B7
100
AcDbEntity
  8
0
  6
ByLayer
 62
  256
370
   -1
100
AcDbLine
 10
40.34316653652777
 20
1.035988325848915
 11
40.3715777764208
 21
1.058330475919841
  0
LINE
  5
2B8
100
AcDbEntity
  8
0
  6
ByLayer
 62
  256
370
   -1
100
AcDbLine
 10
40.3715777764208
 20
1.058330475919841
 11
40.39964724765729
 21
1.081512863198543
  0
LINE
  5
2B9
100
AcDbEntity
  8
0
  6
ByLayer
 62
  256
370
   -1
100
AcDbLine
 10
40.39964724765729
 20
1.081512863198543
 11
40.42737128721895
 21
1.105508036664707
  0
LINE
  5
2BA
100
AcDbEntity
  8
0
  6
ByLayer
 62
  256
370
   -1
100
AcDbLine
 10
40.42737128721895
 20
1.105508036664707
 11
40.45474623208743
 21
1.13028854529802
  0
LINE
  5
2BB
100
AcDbEntity
  8
0
  6
ByLayer
 62
  256
370
   -1
100
AcDbLine
 10
40.45474623208743
 20
1.13028854529802
 11
40.48176841924447
 21
1.155826938078168
  0
LINE
  5
2BC
100
AcDbEntity
  8
0
  6
ByLayer
 62
  256
370
   -1
100
AcDbLine
 10
40.48176841924447
 20
1.155826938078168
 11
40.50843418567179
 21
1.182095763984836
  0
LINE
  5
2BD
100
AcDbEntity
  8
0
  6
ByLayer
 62
  256
370
   -1
100
AcDbLine
 10
40.50843418567179
 20
1.182095763984836
 11
40.53473986835103
 21
1.209067571997711
  0
LINE
  5
2BE
100
AcDbEntity
  8
0
  6
ByLayer
 62
  256
370
   -1
100
AcDbLine
 10
40.53473986835103
 20
1.209067571997711
 11
40.56068180426393
 21
1.236714911096478
  0
LINE
  5
2BF
100
AcDbEntity
  8
0
  6
ByLayer
 62
  256
370
   -1
100
AcDbLine
 10
40.56068180426393
 20
1.236714911096478
 11
40.58625633039219
 21
1.265010330260824
  0
LINE
  5
2C0
100
AcDbEntity
  8
0
  6
ByLayer
 62
  256
370
   -1
100
AcDbLine
 10
40.58625633039219
 20
1.265010330260824
 11
40.61145978371749
 21
1.293926378470435
  0
LINE
  5
2C1
100
AcDbEntity
  8
0
  6
ByLayer
 62
  256
370
   -1
100
AcDbLine
 10
40.61145978371749
 20
1.293926378470435
 11
40.63628850122154
 21
1.323435604704996
  0
LINE
  5
2C2
100
AcDbEntity
  8
0
  6
ByLayer
 62
  256
370
   -1
100
AcDbLine
 10
40.63628850122154
 20
1.323435604704996
 11
40.66073881988603
 21
1.353510557944194
  0
LINE
  5
2C3
100
AcDbEntity
  8
0
  6
ByLayer
 62
  256
370
   -1
100
AcDbLine
 10
40.66073881988603
 20
1.353510557944194
 11
40.68480707669266
 21
1.384123787167713
  0
LINE
  5
2C4
100
AcDbEntity
  8
0
  6
ByLayer
 62
  256
370
   -1
100
AcDbLine
 10
40.68480707669266
 20
1.384123787167713
 11
40.70848960862315
 21
1.415247841355243
  0
LINE
  5
2C5
100
AcDbEntity
  8
0
  6
ByLayer
 62
  256
370
   -1
100
AcDbLine
 10
40.70848960862315
 20
1.415247841355243
 11
40.73178275265918
 21
1.446855269486466
  0
LINE
  5
2C6
100
AcDbEntity
  8
0
  6
ByLayer
 62
  256
370
   -1
100
AcDbLine
 10
40.73178275265918
 20
1.446855269486466
 11
40.75468284578245
 21
1.47891862054107
  0
LINE
  5
2C7
100
AcDbEntity
  8
0
  6
ByLayer
 62
  256
370
   -1
100
AcDbLine
 10
40.75468284578245
 20
1.47891862054107
 11
40.77718622497467
 21
1.511410443498741
  0
LINE
  5
2C8
100
AcDbEntity
  8
0
  6
ByLayer
 62
  256
370
   -1
100
AcDbLine
 10
40.77718622497467
 20
1.511410443498741
 11
40.79928922721753
 21
1.544303287339165
  0
LINE
  5
2C9
100
AcDbEntity
  8
0
  6
ByLayer
 62
  256
370
   -1
100
AcDbLine
 10
40.79928922721753
 20
1.544303287339165
 11
40.82098818949273
 21
1.577569701042027
  0
LINE
  5
2CA
100
AcDbEntity
  8
0
  6
ByLayer
 62
  256
370
   -1
100
AcDbLine
 10
40.82098818949273
 20
1.577569701042027
 11
40.84227944878197
 21
1.611182233587013
  0
LINE
  5
2CB
100
AcDbEntity
  8
0
  6
ByLayer
 62
  256
370
   -1
100
AcDbLine
 10
40.84227944878197
 20
1.611182233587013
 11
40.86315934206694
 21
1.645113433953811
  0
LINE
  5
2CC
100
AcDbEntity
  8
0
  6
ByLayer
 62
  256
370
   -1
100
AcDbLine
 10
40.86315934206694
 20
1.645113433953811
 11
40.88362420632936
 21
1.679335851122105
  0
LINE
  5
2CD
100
AcDbEntity
  8
0
  6
ByLayer
 62
  256
370
   -1
100
AcDbLine
 10
40.88362420632936
 20
1.679335851122105
 11
40.9036703785509
 21
1.713822034071581
  0
LINE
  5
2CE
100
AcDbEntity
  8
0
  6
ByLayer
 62
  256
370
   -1
100
AcDbLine
 10
40.9036703785509
 20
1.713822034071581
 11
40.9232941957133
 21
1.748544531781926
  0
LINE
  5
2CF
100
AcDbEntity
  8
0
  6
ByLayer
 62
  256
370
   -1
100
AcDbLine
 10
40.9232941957133
 20
1.748544531781926
 11
40.94249199479822
 21
1.783475893232827
  0
LINE
  5
2D0
100
AcDbEntity
  8
0
  6
ByLayer
 62
  256
370
   -1
100
AcDbLine
 10
40.94249199479822
 20
1.783475893232827
 11
40.96126011278738
 21
1.818588667403968
  0
LINE
  5
2D1
100
AcDbEntity
  8
0
  6
ByLayer
 62
  256
370
   -1
100
AcDbLine
 10
40.96126011278738
 20
1.818588667403968
 11
40.97959488666247
 21
1.853855403275035
  0
LINE
  5
2D2
100
AcDbEntity
  8
0
  6
ByLayer
 62
  256
370
   -1
100
AcDbLine
 10
40.97959488666247
 20
1.853855403275035
 11
40.99749265340519
 21
1.889248649825715
  0
LINE
  5
2D3
100
AcDbEntity
  8
0
  6
ByLayer
 62
  256
370
   -1
100
AcDbLine
 10
40.99749265340519
 20
1.889248649825715
 11
41.01494974999726
 21
1.924740956035694
  0
LINE
  5
2D4
100
AcDbEntity
  8
0
  6
ByLayer
 62
  256
370
   -1
100
AcDbLine
 10
41.01494974999726
 20
1.924740956035694
 11
41.03196251342034
 21
1.960304870884658
  0
LINE
  5
2D5
100
AcDbEntity
  8
0
  6
ByLayer
 62
  256
370
   -1
100
AcDbLine
 10
41.03196251342034
 20
1.960304870884658
 11
41.04852728065616
 21
1.995912943352292
  0
LINE
  5
2D6
100
AcDbEntity
  8
0
  6
ByLayer
 62
  256
370
   -1
100
AcDbLine
 10
41.04852728065616
 20
1.995912943352292
 11
41.06464038868641
 21
2.031537722418284
  0
LINE
  5
2D7
100
AcDbEntity
  8
0
  6
ByLayer
 62
  256
370
   -1
100
AcDbLine
 10
41.06464038868641
 20
2.031537722418284
 11
41.08029817449279
 21
2.067151757062317
  0
LINE
  5
2D8
100
AcDbEntity
  8
0
  6
ByLayer
 62
  256
370
   -1
100
AcDbLine
 10
41.08029817449279
 20
2.067151757062317
 11
41.095496975057
 21
2.10272759626408
  0
LINE
  5
2D9
100
AcDbEntity
  8
0
  6
ByLayer
 62
  256
370
   -1
100
AcDbLine
 10
41.095496975057
 20
2.10272759626408
 11
41.11023312736072
 21
2.138237789003257
  0
LINE
  5
2DA
100
AcDbEntity
  8
0
  6
ByLayer
 62
  256
370
   -1
100
AcDbLine
 10
41.11023312736072
 20
2.138237789003257
 11
41.12450296838568
 21
2.173654884259536
  0
LINE
  5
2DB
100
AcDbEntity
  8
0
  6
ByLayer
 62
  256
370
   -1
100
AcDbLine
 10
41.12450296838568
 20
2.173654884259536
 11
41.13830283511356
 21
2.208951431012601
  0
LINE
  5
2DC
100
AcDbEntity
  8
0
  6
ByLayer
 62
  256
370
   -1
100
AcDbLine
 10
41.13830283511356
 20
2.208951431012601
 11
41.15162906452608
 21
2.24409997824214
  0
LINE
  5
2DD
100
AcDbEntity
  8
0
  6
ByLayer
 62
  256
370
   -1
100
AcDbLine
 10
41.15162906452608
 20
2.24409997824214
 11
41.1644779936049
 21
2.279073074927836
  0
LINE
  5
2DE
100
AcDbEntity
  8
0
  6
ByLayer
 62
  256
370
   -1
100
AcDbLine
 10
41.1644779936049
 20
2.279073074927836
 11
41.17684595933176
 21
2.31384327004938
  0
LINE
  5
2DF
100
AcDbEntity
  8
0
  6
ByLayer
 62
  256
370
   -1
100
AcDbLine
 10
38.75527378691152
 20
1.366791669991201
 11
38.76671389008675
 21
1.34946347603255
  0
MTEXT
  5
2E0
100
AcDbEntity
  8
KFM3
  6
ByLayer
 62
  256
370
   -1
100
AcDbMText
 10
32.09924467728894
 20
22.57966253791175
 30
0
 40
0.125
 41
1.850694444444468
 71
    1
 72
    1
  1
Upper wing bolt plate
  7
standard
210
0
220
0
230
1
 50
90
 73
    2
 44
1
  0
LINE
  5
2E1
100
AcDbEntity
  8
Bulkheads
  6
ByLayer
 62
  256
370
   -1
100
AcDbLine
 10
26.50643827028106
 20
21.20631889078487
 11
27.25288794589973
 21
21.20631888642563
  0
LINE
  5
2E2
100
AcDbEntity
  8
Bulkheads
  6
ByLayer
 62
  256
370
   -1
100
AcDbLine
 10
26.50643827028106
 20
21.33131889078487
 11
27.25288794589973
 21
21.33131888642563
  0
LINE
  5
2E3
100
AcDbEntity
  8
Bulkheads
  6
ByLayer
 62
  256
370
   -1
100
AcDbLine
 10
26.50643827028106
 20
21.20631889078487
 11
26.50643827028106
 21
21.33131889078487
  0
LINE
  5
2E4
100
AcDbEntity
  8
Bulkheads
  6
ByLayer
 62
  256
370
   -1
100
AcDbLine
 10
27.25288794589973
 20
19.26375453305238
 11
27.25288794589973
 21
19.18262998462578
  0
LINE
  5
2E5
100
AcDbEntity
  8
Bulkheads
  6
ByLayer
 62
  256
370
   -1
100
AcDbLine
 10
26.42527781781898
 20
21.66608107187334
 11
26.4252798992472
 21
21.91608107187334
  0
LINE
  5
2E6
100
AcDbEntity
  8
Bulkheads
  6
ByLayer
 62
  256
370
   -1
100
AcDbLine
 10
26.17527781781031
 20
21.66608107187334
 11
26.42527781781898
 21
21.66608107187334
  0
LINE
  5
2E7
100
AcDbEntity
  8
Bulkheads
  6
ByLayer
 62
  256
370
   -1
100
AcDbLine
 10
26.4252550598899
 20
18.93262998462578
 11
26.42525714131813
 21
19.18262998462578
  0
LINE
  5
2E8
100
AcDbEntity
  8
Bulkheads
  6
ByLayer
 62
  256
370
   -1
100
AcDbLine
 10
26.42525714131813
 20
19.18262998462578
 11
26.17525714130944
 21
19.18262998462578
  0
LINE
  5
2E9
100
AcDbEntity
  8
Bulkheads
  6
ByLayer
 62
  256
370
   -1
100
AcDbLine
 10
26.63143827028106
 20
19.18262998462578
 11
26.63143827028106
 21
19.26375453305238
  0
LINE
  5
2EA
100
AcDbEntity
  8
Bulkheads
  6
ByLayer
 62
  256
370
   -1
100
AcDbLine
 10
26.63143827028106
 20
19.26375453305238
 11
27.25288794589973
 21
19.26375453305238
  0
LINE
  5
2EB
100
AcDbEntity
  8
Bulkheads
  6
ByLayer
 62
  256
370
   -1
100
AcDbLine
 10
27.25288794589973
 20
19.18262998462578
 11
26.63143827028106
 21
19.18262998462578
  0
LINE
  5
2EC
100
AcDbEntity
  8
Bulkheads
  6
ByLayer
 62
  256
370
   -1
100
AcDbLine
 10
26.67526982858321
 20
20.9563188897989
 11
27.25288794443975
 21
20.95631888642563
  0
ARC
  5
2ED
100
AcDbEntity
  8
Bulkheads
  6
ByLayer
 62
  256
370
   -1
100
AcDbCircle
 10
26.67526982712322
 20
20.7063188897989
 40
0.25
100
AcDbArc
 50
89.99999966539546
 51
179.9995229717871
  0
LINE
  5
2EE
100
AcDbEntity
  8
Bulkheads
  6
ByLayer
 62
  256
370
   -1
100
AcDbLine
 10
26.42526197961162
 20
19.76375661448063
 11
26.4252698271319
 21
20.70632097122714
  0
LINE
  5
2EF
100
AcDbEntity
  8
Bulkheads
  6
ByLayer
 62
  256
370
   -1
100
AcDbLine
 10
26.67526197960298
 20
19.51375453305238
 11
27.25288794589973
 21
19.51375453305238
  0
ARC
  5
2F0
100
AcDbEntity
  8
Bulkheads
  6
ByLayer
 62
  256
370
   -1
100
AcDbCircle
 10
26.67526197960298
 20
19.76375453305238
 40
0.25
100
AcDbArc
 50
179.9995229717871
 51
270
  0
LINE
  5
2F1
100
AcDbEntity
  8
Bulkheads
  6
ByLayer
 62
  256
370
   -1
100
AcDbLine
 10
27.99933762151836
 20
21.20631889078487
 11
27.25288794589973
 21
21.20631888642563
  0
LINE
  5
2F2
100
AcDbEntity
  8
Bulkheads
  6
ByLayer
 62
  256
370
   -1
100
AcDbLine
 10
27.99933762151836
 20
21.33131889078487
 11
27.25288794589973
 21
21.33131888642563
  0
LINE
  5
2F3
100
AcDbEntity
  8
Bulkheads
  6
ByLayer
 62
  256
370
   -1
100
AcDbLine
 10
27.99933762151836
 20
21.20631889078487
 11
27.99933762151836
 21
21.33131889078487
  0
LINE
  5
2F4
100
AcDbEntity
  8
Bulkheads
  6
ByLayer
 62
  256
370
   -1
100
AcDbLine
 10
27.25288794589973
 20
19.26375453305238
 11
27.25288794589973
 21
19.18262998462578
  0
LINE
  5
2F5
100
AcDbEntity
  8
Bulkheads
  6
ByLayer
 62
  256
370
   -1
100
AcDbLine
 10
28.08049807398048
 20
21.66608107187334
 11
28.08049599255223
 21
21.91608107187334
  0
LINE
  5
2F6
100
AcDbEntity
  8
Bulkheads
  6
ByLayer
 62
  256
370
   -1
100
AcDbLine
 10
28.33049807398912
 20
21.66608107187334
 11
28.08049807398048
 21
21.66608107187334
  0
LINE
  5
2F7
100
AcDbEntity
  8
Bulkheads
  6
ByLayer
 62
  256
370
   -1
100
AcDbLine
 10
28.08052083190956
 20
18.93262998462578
 11
28.08051875048132
 21
19.18262998462578
  0
LINE
  5
2F8
100
AcDbEntity
  8
Bulkheads
  6
ByLayer
 62
  256
370
   -1
100
AcDbLine
 10
28.08051875048132
 20
19.18262998462578
 11
28.33051875048998
 21
19.18262998462578
  0
LINE
  5
2F9
100
AcDbEntity
  8
Bulkheads
  6
ByLayer
 62
  256
370
   -1
100
AcDbLine
 10
27.87433762151836
 20
19.18262998462578
 11
27.87433762151836
 21
19.26375453305238
  0
LINE
  5
2FA
100
AcDbEntity
  8
Bulkheads
  6
ByLayer
 62
  256
370
   -1
100
AcDbLine
 10
27.87433762151836
 20
19.26375453305238
 11
27.25288794589973
 21
19.26375453305238
  0
LINE
  5
2FB
100
AcDbEntity
  8
Bulkheads
  6
ByLayer
 62
  256
370
   -1
100
AcDbLine
 10
27.25288794589973
 20
19.18262998462578
 11
27.87433762151836
 21
19.18262998462578
  0
LINE
  5
2FC
100
AcDbEntity
  8
Bulkheads
  6
ByLayer
 62
  256
370
   -1
100
AcDbLine
 10
27.83050606321622
 20
20.9563188897989
 11
27.25288794735971
 21
20.95631888642563
  0
ARC
  5
2FD
100
AcDbEntity
  8
Bulkheads
  6
ByLayer
 62
  256
370
   -1
100
AcDbCircle
 10
27.83050606467621
 20
20.7063188897989
 40
0.25
100
AcDbArc
 50
0.0004770282129226399
 51
90.00000033460454
  0
LINE
  5
2FE
100
AcDbEntity
  8
Bulkheads
  6
ByLayer
 62
  256
370
   -1
100
AcDbLine
 10
28.08051391218781
 20
19.76375661448063
 11
28.08050606466756
 21
20.70632097122714
  0
LINE
  5
2FF
100
AcDbEntity
  8
Bulkheads
  6
ByLayer
 62
  256
370
   -1
100
AcDbLine
 10
27.83051391219648
 20
19.51375453305238
 11
27.25288794589973
 21
19.51375453305238
  0
ARC
  5
300
100
AcDbEntity
  8
Bulkheads
  6
ByLayer
 62
  256
370
   -1
100
AcDbCircle
 10
27.83051391219648
 20
19.76375453305238
 40
0.25
100
AcDbArc
 50
270
 51
0.0004770282129226399
  0
LINE
  5
301
100
AcDbEntity
  8
Bulkheads
  6
ByLayer
 62
  256
370
   -1
100
AcDbLine
 10
27.25288794589973
 20
18.93262998462578
 11
26.4252550598899
 21
18.93262998462578
  0
LINE
  5
302
100
AcDbEntity
  8
Bulkheads
  6
ByLayer
 62
  256
370
   -1
100
AcDbLine
 10
26.4252798992472
 20
21.91608107187334
 11
27.25288794589973
 21
21.91608107187334
  0
LINE
  5
303
100
AcDbEntity
  8
Bulkheads
  6
ByLayer
 62
  256
370
   -1
100
AcDbLine
 10
27.25288794589973
 20
18.93262998462578
 11
28.08052083190956
 21
18.93262998462578
  0
LINE
  5
304
100
AcDbEntity
  8
Bulkheads
  6
ByLayer
 62
  256
370
   -1
100
AcDbLine
 10
28.33051875048998
 20
19.18262998462578
 11
28.33049807398912
 21
21.66608107187334
  0
LINE
  5
305
100
AcDbEntity
  8
Bulkheads
  6
ByLayer
 62
  256
370
   -1
100
AcDbLine
 10
26.17525714130944
 20
19.18262998462578
 11
26.17527781781031
 21
21.66608107187334
  0
LINE
  5
306
100
AcDbEntity
  8
Bulkheads
  6
ByLayer
 62
  256
370
   -1
100
AcDbLine
 10
27.25288794589973
 20
20.91059588926917
 11
26.17527152785755
 21
20.91059588926917
  0
LINE
  5
307
100
AcDbEntity
  8
Bulkheads
  6
ByLayer
 62
  256
370
   -1
100
AcDbLine
 10
27.25288794589973
 20
20.91059588926917
 11
28.33050436394188
 21
20.91059588926917
  0
LINE
  5
308
100
AcDbEntity
  8
Bulkheads
  6
ByLayer
 62
  256
370
   -1
100
AcDbLine
 10
28.08049599255223
 20
21.91608107187334
 11
27.25288794589973
 21
21.91608107187334
  0
LINE
  5
309
100
AcDbEntity
  8
Bulkheads
  6
ByLayer
 62
  256
370
   -1
100
AcDbLine
 10
27.25288794589973
 20
18.93262998462578
 11
27.25288794589973
 21
21.91608107187334
  0
MTEXT
  5
30A
100
AcDbEntity
  8
Bulkheads
  6
ByLayer
 62
  256
370
   -1
100
AcDbMText
 10
27.56157714843096
 20
21.73792289046517
 30
0
 40
0.25
 41
0.3333333333333488
 71
    1
 72
    1
  1
P3
  7
standard
210
0
220
0
230
1
 50
0
 73
    2
 44
1
  0
LINE
  5
30B
100
AcDbEntity
  8
KFM3
  6
ByLayer
 62
  256
370
   -1
100
AcDbLine
 10
17.6848
 20
4.6068
 11
17.6848
 21
4.7318
  0
LINE
  5
30C
100
AcDbEntity
  8
KFM3
  6
ByLayer
 62
  256
370
   -1
100
AcDbLine
 10
17.6848
 20
4.7318
 11
18.68982312383741
 21
4.7318
  0
LINE
  5
30D
100
AcDbEntity
  8
KFM3
  6
ByLayer
 62
  256
370
   -1
100
AcDbLine
 10
18.68982312383741
 20
4.6068
 11
17.6848
 21
4.6068
  0
LWPOLYLINE
  5
30E
100
AcDbEntity
  8
KFM3
  6
ByLayer
 62
  256
370
   -1
100
AcDbPolyline
 90
    4
 70
    1
 43
0
 10
18.5648
 20
4.7318
 10
17.6848
 20
4.7318
 10
17.6848
 20
4.8568
 10
18.5648
 20
4.8568
  0
MTEXT
  5
30F
100
AcDbEntity
  8
KFM3
  6
ByLayer
 62
  256
370
   -1
100
AcDbMText
 10
31.07784216636808
 20
22.50305734959269
 30
0
 40
0.125
 41
1.878472222222246
 71
    1
 72
    1
  1
Middle wing bolt plate
  7
standard
210
0
220
0
230
1
 50
90
 73
    2
 44
1
  0
MTEXT
  5
310
100
AcDbEntity
  8
KFM3
  6
ByLayer
 62
  256
370
   -1
100
AcDbMText
 10
29.85854291895632
 20
22.50944111528594
 30
0
 40
0.125
 41
1.864583333333357
 71
    1
 72
    1
  1
Lower wing bolt plate
  7
standard
210
0
220
0
230
1
 50
90
 73
    2
 44
1
  0
LINE
  5
311
100
AcDbEntity
  8
0
  6
ByLayer
 62
  256
370
   -1
100
AcDbLine
 10
10.80701262862009
 20
4.755542578214445
 11
10.80861876804474
 21
7.213274853805998
  0
LINE
  5
312
100
AcDbEntity
  8
0
  6
ByLayer
 62
  256
370
   -1
100
AcDbLine
 10
33.33146055865807
 20
30.30766783403224
 11
25.82421686919531
 21
30.30766783403224
  0
LINE
  5
313
100
AcDbEntity
  8
0
  6
ByLayer
 62
  256
370
   -1
100
AcDbLine
 10
31.57220474436297
 20
29.2915928339937
 11
31.57220474436297
 21
29.5415928339937
  0
LINE
  5
314
100
AcDbEntity
  8
0
  6
ByLayer
 62
  256
370
   -1
100
AcDbLine
 10
26.07878759369716
 20
29.53886800318404
 11
26.41213524081867
 21
29.61057650866948
  0
LINE
  5
315
100
AcDbEntity
  8
0
  6
ByLayer
 62
  256
370
   -1
100
AcDbLine
 10
26.41213524081867
 20
29.61057650866948
 11
26.76486356509842
 21
29.65902820156505
  0
LINE
  5
316
100
AcDbEntity
  8
0
  6
ByLayer
 62
  256
370
   -1
100
AcDbLine
 10
26.76486356509842
 20
29.65902820156505
 11
27.04652940646467
 21
29.69585148816568
  0
LINE
  5
317
100
AcDbEntity
  8
0
  6
ByLayer
 62
  256
370
   -1
100
AcDbLine
 10
27.04652940646467
 20
29.69585148816568
 11
27.4745568296847
 21
29.71523991759478
  0
LINE
  5
318
100
AcDbEntity
  8
0
  6
ByLayer
 62
  256
370
   -1
100
AcDbLine
 10
27.4745568296847
 20
29.71523991759478
 11
27.79627994664672
 21
29.73286858153791
  0
LINE
  5
319
100
AcDbEntity
  8
0
  6
ByLayer
 62
  256
370
   -1
100
AcDbLine
 10
27.79627994664672
 20
29.73286858153791
 11
28.14003889353764
 21
29.75270082847392
  0
LINE
  5
31A
100
AcDbEntity
  8
0
  6
ByLayer
 62
  256
370
   -1
100
AcDbLine
 10
28.14003889353764
 20
29.75270082847392
 11
28.52498729122479
 21
29.77141035877579
  0
LINE
  5
31B
100
AcDbEntity
  8
0
  6
ByLayer
 62
  256
370
   -1
100
AcDbLine
 10
28.52498729122479
 20
29.77141035877579
 11
28.65354128579352
 21
29.77981455397556
  0
LINE
  5
31C
100
AcDbEntity
  8
0
  6
ByLayer
 62
  256
370
   -1
100
AcDbLine
 10
28.65354128579352
 20
29.77981455397556
 11
29.57522888910226
 21
29.77981455397556
  0
LINE
  5
31D
100
AcDbEntity
  8
0
  6
ByLayer
 62
  256
370
   -1
100
AcDbLine
 10
29.57522888910226
 20
29.77981455397556
 11
29.57522888910226
 21
29.5415928339937
  0
LINE
  5
31E
100
AcDbEntity
  8
0
  6
ByLayer
 62
  256
370
   -1
100
AcDbLine
 10
29.57522888910226
 20
29.5415928339937
 11
31.57220474436297
 21
29.5415928339937
  0
LINE
  5
31F
100
AcDbEntity
  8
0
  6
ByLayer
 62
  256
370
   -1
100
AcDbLine
 10
25.82365006344076
 20
29.44033541220815
 11
26.07878759369716
 21
29.53886800318404
  0
LINE
  5
320
100
AcDbEntity
  8
0
  6
ByLayer
 62
  256
370
   -1
100
AcDbLine
 10
25.82365006344076
 20
29.44033541220815
 11
25.82421686919531
 21
30.30766783403224
  0
LINE
  5
321
100
AcDbEntity
  8
0
  6
ByLayer
 62
  256
370
   -1
100
AcDbLine
 10
32.70143743482066
 20
29.2915928339937
 11
32.70143743482066
 21
29.4165928339937
  0
LWPOLYLINE
  5
322
100
AcDbEntity
  8
0
  6
ByLayer
 62
  256
370
   -1
100
AcDbPolyline
 90
    7
 70
    0
 43
0
 10
33.33146055865807
 20
29.6665928339937
 10
32.70143743482066
 20
29.6665928339937
 10
32.70143743482066
 20
29.2915928339937
 10
31.57220474436297
 20
29.2915928339937
 10
31.57220474436297
 20
29.5415928339937
 10
29.57522888910226
 20
29.5415928339937
 10
29.57522888910226
 20
29.77981455397556
  0
LINE
  5
323
100
AcDbEntity
  8
0
  6
ByLayer
 62
  256
370
   -1
100
AcDbLine
 10
33.33146055865807
 20
29.6665928339937
 11
33.33146055865807
 21
30.30766783403224
  0
LINE
  5
324
100
AcDbEntity
  8
0
  6
ByLayer
 62
  256
370
   -1
100
AcDbLine
 10
18.56482312385059
 20
4.723209814563483
 11
34.96474491987176
 21
6.326829434106598
  0
LINE
  5
325
100
AcDbEntity
  8
0
  6
ByLayer
 62
  256
370
   -1
100
AcDbLine
 10
18.56482312385059
 20
4.472017489225895
 11
34.9890744227399
 21
6.078016099877525
  0
LINE
  5
326
100
AcDbEntity
  8
0
  6
ByLayer
 62
  256
370
   -1
100
AcDbLine
 10
18.56482312385059
 20
4.3464213265571
 11
35.00123917417397
 21
5.953609432762988
  0
LINE
  5
327
100
AcDbEntity
  8
KFM3
  6
ByLayer
 62
  256
370
   -1
100
AcDbLine
 10
18.5648
 20
4.8568
 11
17.6848
 21
4.8568
  0
LINE
  5
328
100
AcDbEntity
  8
KFM3
  6
ByLayer
 62
  256
370
   -1
100
AcDbLine
 10
17.6848
 20
4.8568
 11
17.6848
 21
4.9818
  0
LINE
  5
329
100
AcDbEntity
  8
KFM3
  6
ByLayer
 62
  256
370
   -1
100
AcDbLine
 10
17.6848
 20
4.9818
 11
18.5648
 21
4.9818
  0
LINE
  5
32A
100
AcDbEntity
  8
KFM3
  6
ByLayer
 62
  256
370
   -1
100
AcDbLine
 10
18.5648
 20
4.9818
 11
18.5648
 21
4.8568
  0
LINE
  5
32B
100
AcDbEntity
  8
0
  6
ByLayer
 62
  256
370
   -1
100
AcDbLine
 10
18.31482312383741
 20
4.9818
 11
18.31482312383741
 21
7.217095182604165
  0
LINE
  5
32C
100
AcDbEntity
  8
0
  6
ByLayer
 62
  256
370
   -1
100
AcDbLine
 10
18.31482312383741
 20
4.9818
 11
18.5648
 21
4.9818
  0
LINE
  5
32D
100
AcDbEntity
  8
0
  6
ByLayer
 62
  256
370
   -1
100
AcDbLine
 10
18.5648
 20
4.9818
 11
18.56482312385059
 21
4.343645959826127
  0
LINE
  5
32E
100
AcDbEntity
  8
KFM3
  6
ByLayer
 62
  256
370
   -1
100
AcDbLine
 10
18.56482312385059
 20
4.343645959826127
 11
18.56482312385059
 21
4.593645959826127
  0
LINE
  5
32F
100
AcDbEntity
  8
KFM3
  6
ByLayer
 62
  256
370
   -1
100
AcDbLine
 10
18.68982312383741
 20
4.7318
 11
18.68982312383741
 21
4.6068
  0
LINE
  5
330
100
AcDbEntity
  8
0
  6
ByLayer
 62
  256
370
   -1
100
AcDbLine
 10
12.67142042287034
 20
4.872849374760674
 11
12.67142042287034
 21
5.060349374760674
  0
LINE
  5
331
100
AcDbEntity
  8
0
  6
ByLayer
 62
  256
370
   -1
100
AcDbLine
 10
12.67142042287034
 20
5.060349374760674
 11
10.26517042287034
 21
5.060349374760674
  0
ARC
  5
332
100
AcDbEntity
  8
0
  6
ByLayer
 62
  256
370
   -1
100
AcDbCircle
 10
10.26517042287034
 20
4.966599374760673
 40
0.09375
100
AcDbArc
 50
90
 51
180
  0
LINE
  5
333
100
AcDbEntity
  8
0
  6
ByLayer
 62
  256
370
   -1
100
AcDbLine
 10
10.17142042287034
 20
4.966599374760673
 11
10.17142042287034
 21
4.966599374760673
  0
LINE
  5
334
100
AcDbEntity
  8
0
  6
ByLayer
 62
  256
370
   -1
100
AcDbLine
 10
10.26517042287034
 20
4.872849374760674
 11
12.67142042287034
 21
4.872849374760674
  0
ARC
  5
335
100
AcDbEntity
  8
0
  6
ByLayer
 62
  256
370
   -1
100
AcDbCircle
 10
10.26517042287034
 20
4.966599374760673
 40
0.09375
100
AcDbArc
 50
180
 51
270
  0
MTEXT
  5
336
100
AcDbEntity
  8
0
  6
ByLayer
 62
  256
370
   -1
100
AcDbMText
 10
10.7668508917013
 20
5.044993729225535
 30
0
 40
0.125
 41
1.524305555555579
 71
    1
 72
    1
  1
3/16 X 2.5" dowel
  7
standard
210
0
220
0
230
1
 50
0
 73
    2
 44
1
  0
LWPOLYLINE
  5
337
100
AcDbEntity
  8
0
  6
ByLayer
 62
  256
370
   -1
100
AcDbPolyline
 90
    4
 70
    1
 43
0
 10
12.58493755543163
 20
4.344518780861952
 10
12.45993755543163
 20
4.344518780861952
 10
12.45993755543163
 20
5.344518780861952
 10
12.58493755543163
 20
5.344518780861952
  0
MTEXT
  5
338
100
AcDbEntity
  8
0
  6
ByLayer
 62
  256
370
   -1
100
AcDbMText
 10
12.42752745467577
 20
4.171367670030497
 30
0
 40
0.125
 41
0.1805555555555555
 71
    1
 72
    1
  1
W1
  7
standard
210
0
220
0
230
1
 50
0
 73
    2
 44
1
  0
LINE
  5
339
100
AcDbEntity
  8
0
  6
ByLayer
 62
  256
370
   -1
100
AcDbLine
 10
12.58356785146468
 20
12.45585607885598
 11
12.58361505602872
 21
14.11127872337308
  0
LINE
  5
33A
100
AcDbEntity
  8
0
  6
ByLayer
 62
  256
370
   -1
100
AcDbLine
 10
12.45856785141385
 20
12.45585607885598
 11
12.45861505607954
 21
14.11128228776222
  0
LINE
  5
33B
100
AcDbEntity
  8
0
  6
ByLayer
 62
  256
370
   -1
100
AcDbLine
 10
12.69305150126507
 20
13.18302519425781
 11
12.69305150126507
 21
13.37052519425781
  0
LINE
  5
33C
100
AcDbEntity
  8
0
  6
ByLayer
 62
  256
370
   -1
100
AcDbLine
 10
12.69305150126507
 20
13.37052519425781
 11
10.28680150126506
 21
13.37052519425781
  0
ARC
  5
33D
100
AcDbEntity
  8
0
  6
ByLayer
 62
  256
370
   -1
100
AcDbCircle
 10
10.28680150126506
 20
13.27677519425781
 40
0.09375
100
AcDbArc
 50
90
 51
180
  0
LINE
  5
33E
100
AcDbEntity
  8
0
  6
ByLayer
 62
  256
370
   -1
100
AcDbLine
 10
10.19305150126507
 20
13.27677519425781
 11
10.19305150126507
 21
13.27677519425781
  0
LINE
  5
33F
100
AcDbEntity
  8
0
  6
ByLayer
 62
  256
370
   -1
100
AcDbLine
 10
10.28680150126507
 20
13.18302519425781
 11
12.69305150126507
 21
13.18302519425781
  0
ARC
  5
340
100
AcDbEntity
  8
0
  6
ByLayer
 62
  256
370
   -1
100
AcDbCircle
 10
10.28680150126507
 20
13.27677519425781
 40
0.09375
100
AcDbArc
 50
180
 51
270
  0
MTEXT
  5
341
100
AcDbEntity
  8
0
  6
ByLayer
 62
  256
370
   -1
100
AcDbMText
 10
10.78848197009602
 20
13.35516954872267
 30
0
 40
0.125
 41
1.524305555555579
 71
    1
 72
    1
  1
3/16 X 2.5" dowel
  7
standard
210
0
220
0
230
1
 50
0
 73
    2
 44
1
  0
MTEXT
  5
342
100
AcDbEntity
  8
0
  6
ByLayer
 62
  256
370
   -1
100
AcDbMText
 10
8.490294499060367
 20
14.99223459658369
 30
0
 40
0.125
 41
1.524305555555579
 71
    1
 72
    1
  1
3/16 X 2.5" dowel
  7
standard
210
0
220
0
230
1
 50
0
 73
    2
 44
1
  0
LWPOLYLINE
  5
343
100
AcDbEntity
  8
0
  6
ByLayer
 62
  256
370
   -1
100
AcDbPolyline
 90
    4
 70
    0
 43
0
 10
18.31482312383741
 20
4.9818
 10
17.6848
 20
4.9818
 10
18.31482312383741
 20
5.622875000038531
 10
18.31482312383741
 20
4.9818
  0
LINE
  5
344
100
AcDbEntity
  8
0
  6
ByLayer
 62
  256
370
   -1
100
AcDbLine
 10
13.93359145428161
 20
15.7836150311932
 11
14.05859145428161
 21
15.7836150311932
  0
LINE
  5
345
100
AcDbEntity
  8
0
  6
ByLayer
 62
  256
370
   -1
100
AcDbLine
 10
13.93359145428161
 20
13.28360929059424
 11
13.93359145428161
 21
15.7836150311932
  0
LINE
  5
346
100
AcDbEntity
  8
0
  6
ByLayer
 62
  256
370
   -1
100
AcDbLine
 10
14.30859145428161
 20
15.7836150311932
 11
14.43359145428161
 21
15.7836150311932
  0
MTEXT
  5
347
100
AcDbEntity
  8
0
  6
ByLayer
 62
  256
370
   -1
100
AcDbMText
 10
27.29208893482969
 20
17.78569969187446
 30
0
 40
0.125
 41
0.5104166527777778
 71
    1
 72
    1
  1
W2 (2)
  7
standard
210
0
220
0
230
1
 50
0
 73
    2
 44
1
  0
MTEXT
  5
348
100
AcDbEntity
  8
0
  6
ByLayer
 62
  256
370
   -1
100
AcDbMText
 10
26.45822944443043
 20
12.30247487361633
 30
0
 40
0.125
 41
0.5104166527777778
 71
    1
 72
    1
  1
W2 (2)
  7
standard
210
0
220
0
230
1
 50
0
 73
    2
 44
1
  0
TEXT
  5
349
100
AcDbEntity
  8
Hardware
  6
ByLayer
 62
  256
370
   -1
100
AcDbText
 10
10.82518617649355
 20
1.250492941220209
 30
0
 40
0.1
  1
2" Wheels
 50
0
 41
1
 51
0
  7
standard
 71
    0
 72
    2
 11
10.82518617649355
 21
1.250492941220209
 31
0
210
0
220
0
230
1
100
AcDbText
 73
    3
  0
CIRCLE
  5
34A
100
AcDbEntity
  8
Hardware
  6
ByLayer
 62
  256
370
   -1
100
AcDbCircle
 10
10.5502
 20
1.54293
 40
1
  0
LINE
  5
34B
100
AcDbEntity
  8
0
  6
ByLayer
 62
  256
370
   -1
100
AcDbLine
 10
14.4336
 20
15.7836
 11
14.4336
 21
13.2836
  0
LINE
  5
34C
100
AcDbEntity
  8
0
  6
ByLayer
 62
  256
370
   -1
100
AcDbLine
 10
14.3086
 20
13.2836
 11
14.3086
 21
15.7836
  0
MTEXT
  5
34D
100
AcDbEntity
  8
0
  6
ByLayer
 62
  256
370
   -1
100
AcDbMText
 10
14.69337155133196
 20
20.24781805268048
 30
0
 40
0.125
 41
1.225694508730373
 71
    1
 72
    1
  1
Embed & Glue\Pservos in KFM \Players 1 and 3
  7
standard
210
0
220
0
230
1
 50
0
 73
    2
 44
1
  0
LINE
  5
34E
100
AcDbEntity
  8
0
  6
ByLayer
 62
  256
370
   -1
100
AcDbLine
 10
10.43153545597322
 20
4.375505020811949
 11
8.931872706222828
 21
4.407311262512271
  0
LINE
  5
34F
100
AcDbEntity
  8
0
  6
ByLayer
 62
  256
370
   -1
100
AcDbLine
 10
8.931872706222828
 20
4.407311262512271
 11
8.93452322636452
 21
4.532283158324804
  0
LINE
  5
350
100
AcDbEntity
  8
0
  6
ByLayer
 62
  256
370
   -1
100
AcDbLine
 10
8.93452322636452
 20
4.532283158324804
 11
10.43418597611491
 21
4.500476916624481
  0
LINE
  5
351
100
AcDbEntity
  8
0
  6
ByLayer
 62
  256
370
   -1
100
AcDbLine
 10
10.43418597611491
 20
4.500476916624481
 11
10.43153545597322
 21
4.375505020811949
  0
ARC
  5
352
100
AcDbEntity
  8
0
  6
ByLayer
 62
  256
370
   -1
100
AcDbCircle
 10
10.34507458117969
 20
29.34300256243651
 40
24.97374705986695
100
AcDbArc
 50
256.6527712180588
 51
266.7561377787975
  0
MTEXT
  5
353
100
AcDbEntity
  8
Bulkheads
  6
ByLayer
 62
  256
370
   -1
100
AcDbMText
 10
10.59694822819318
 20
4.202514282195102
 30
0
 40
0.25
 41
0.3333333333333333
 71
    1
 72
    1
  1
P2
  7
standard
210
0
220
0
230
1
 50
0
 73
    2
 44
1
  0
ARC
  5
354
100
AcDbEntity
  8
Hardware
  6
ByLayer
 62
  256
370
   -1
100
AcDbCircle
 10
10.18059771929502
 20
4.333941600165634
 40
0.04687499999999986
100
AcDbArc
 50
90
 51
268.7849999999995
  0
ARC
  5
355
100
AcDbEntity
  8
Hardware
  6
ByLayer
 62
  256
370
   -1
100
AcDbCircle
 10
10.18059771929502
 20
4.333941600165634
 40
0.04687499999999986
100
AcDbArc
 50
268.7849999999995
 51
90
  0
LINE
  5
356
100
AcDbEntity
  8
Hardware
  6
ByLayer
 62
  256
370
   -1
100
AcDbLine
 10
9.479949646194665
 20
4.30191605439003
 11
10.17960377424188
 21
4.287077139235935
  0
LINE
  5
357
100
AcDbEntity
  8
Hardware
  6
ByLayer
 62
  256
370
   -1
100
AcDbLine
 10
10.58839475213734
 20
1.582264799629105
 11
9.392862137211607
 21
4.168853719673043
  0
ARC
  5
358
100
AcDbEntity
  8
Hardware
  6
ByLayer
 62
  256
370
   -1
100
AcDbCircle
 10
9.477961756088394
 20
4.208187132530631
 40
0.09375
100
AcDbArc
 50
88.78499999999946
 51
204.8065845793295
  0
ARC
  5
359
100
AcDbEntity
  8
Hardware
  6
ByLayer
 62
  256
370
   -1
100
AcDbCircle
 10
9.477961756088394
 20
4.208187132530631
 40
0.1875
100
AcDbArc
 50
88.78499999999946
 51
204.8065845793295
  0
LINE
  5
35A
100
AcDbEntity
  8
Hardware
  6
ByLayer
 62
  256
370
   -1
100
AcDbLine
 10
9.481937711474913
 20
4.395644972534177
 11
10.18159166434815
 21
4.380806061095334
  0
LINE
  5
35B
100
AcDbEntity
  8
Hardware
  6
ByLayer
 62
  256
370
   -1
100
AcDbLine
 10
10.50329513326055
 20
1.542931386771517
 11
9.307762518334819
 21
4.129520306815456
  0
LWPOLYLINE
  5
35C
100
AcDbEntity
  8
0
  6
ByLayer
 62
  256
370
   -1
100
AcDbPolyline
 90
    4
 70
    1
 43
0
 10
10.43418597611491
 20
4.500476916624481
 10
8.93452322636452
 20
4.532283158324804
 10
8.937173746506215
 20
4.657255054137336
 10
10.43683649625661
 20
4.625448812437013
  0
LWPOLYLINE
  5
35D
100
AcDbEntity
  8
0
  6
ByLayer
 62
  256
370
   -1
100
AcDbPolyline
 90
    4
 70
    1
 43
0
 10
33.82364509276039
 20
22.20097820331584
 10
35.32364509276039
 20
22.20097820331584
 10
35.32364509276039
 20
24.86097820331584
 10
33.82364509276039
 20
24.86097820331584
  0
MTEXT
  5
35E
100
AcDbEntity
  8
0
  6
ByLayer
 62
  256
370
   -1
100
AcDbMText
 10
34.3624901554443
 20
23.86646971506144
 30
0
 40
0.125
 41
0.4687499861111189
 71
    1
 72
    1
  1
P6 (2)
  7
standard
210
0
220
0
230
1
 50
0
 73
    2
 44
1
  0
LINE
  5
35F
100
AcDbEntity
  8
0
  6
ByLayer
 62
  256
370
   -1
100
AcDbLine
 10
41.76620121035187
 20
16.29882747529797
 11
40.14435286963817
 21
32.72307877420046
  0
ARC
  5
360
100
AcDbEntity
  8
0
  6
ByLayer
 62
  256
370
   -1
100
AcDbCircle
 10
16.62936640707919
 20
8.079078932640257
 40
24.97374705986695
100
AcDbArc
 50
346.6527712180588
 51
0.5375701802956977
  0
ARC
  5
361
100
AcDbEntity
  8
KFM3
  6
ByLayer
 62
  256
370
   -1
100
AcDbCircle
 10
10.74834104024255
 20
4.534839682449904
 40
0.1878473438623312
100
AcDbArc
 50
100.6902363724382
 51
277.9787710360029
  0
LINE
  5
362
100
AcDbEntity
  8
0
  6
ByLayer
 62
  256
370
   -1
100
AcDbLine
 10
10.18339509872615
 20
5.831936309551602
 11
9.094499047907647
 21
4.650586820456055
  0
LWPOLYLINE
  5
363
100
AcDbEntity
  8
Bulkheads
  6
ByLayer
 62
  256
370
   -1
100
AcDbPolyline
 90
    4
 70
    0
 43
0
 10
9.097510971326718
 20
4.653854473222028
 10
10.18339509872615
 20
5.831936309551602
 10
10.18634093274023
 20
4.631793303499031
 10
9.097510971326718
 20
4.653854473222028
  0
MTEXT
  5
364
100
AcDbEntity
  8
Bulkheads
  6
ByLayer
 62
  256
370
   -1
100
AcDbMText
 10
9.628633786300211
 20
5.121967540898904
 30
0
 40
0.125
 41
0.4687499861111111
 71
    1
 72
    1
  1
P7 (2)
  7
standard
210
0
220
0
230
1
 50
0
 73
    2
 44
1
  0
LINE
  5
365
100
AcDbEntity
  8
0
  6
ByLayer
 62
  256
370
   -1
100
AcDbLine
 10
32.60466189274427
 20
25.22338510651893
 11
32.60466150295786
 21
25.22377637790259
  0
LINE
  5
366
100
AcDbEntity
  8
0
  6
ByLayer
 62
  256
370
   -1
100
AcDbLine
 10
32.60466111317145
 20
25.22416764928625
 11
32.60466150295786
 21
25.22377637790259
  0
LINE
  5
367
100
AcDbEntity
  8
0
  6
ByLayer
 62
  256
370
   -1
100
AcDbLine
 10
33.34618690902057
 20
26.14631049339155
 11
32.25729085820207
 21
24.964961004296
  0
LWPOLYLINE
  5
368
100
AcDbEntity
  8
Bulkheads
  6
ByLayer
 62
  256
370
   -1
100
AcDbPolyline
 90
    4
 70
    0
 43
0
 10
32.26030278162114
 20
24.96822865706197
 10
33.34618690902057
 20
26.14631049339155
 10
33.34913274303466
 20
24.94616748733898
 10
32.26030278162114
 20
24.96822865706197
  0
MTEXT
  5
369
100
AcDbEntity
  8
Bulkheads
  6
ByLayer
 62
  256
370
   -1
100
AcDbMText
 10
32.79142559659464
 20
25.43634172473885
 30
0
 40
0.125
 41
0.4687499861111111
 71
    1
 72
    1
  1
P7 (2)
  7
standard
210
0
220
0
230
1
 50
0
 73
    2
 44
1
  0
LINE
  5
36A
100
AcDbEntity
  8
Bulkheads
  6
ByLayer
 62
  256
370
   -1
100
AcDbLine
 10
35.91369854864118
 20
28.81714660445359
 11
36.03869854864118
 21
28.81714660445359
  0
LINE
  5
36B
100
AcDbEntity
  8
Bulkheads
  6
ByLayer
 62
  256
370
   -1
100
AcDbLine
 10
36.74137939648201
 20
28.56714660445358
 11
36.99137939649066
 21
28.56714660445358
  0
LINE
  5
36C
100
AcDbEntity
  8
Bulkheads
  6
ByLayer
 62
  256
370
   -1
100
AcDbLine
 10
36.99135985665088
 20
26.22021968869356
 11
36.74135985664221
 21
26.22021968869356
  0
LINE
  5
36D
100
AcDbEntity
  8
Bulkheads
  6
ByLayer
 62
  256
370
   -1
100
AcDbLine
 10
36.74138147791023
 20
28.81714660445359
 11
36.74137939648201
 21
28.56714660445358
  0
LINE
  5
36E
100
AcDbEntity
  8
Bulkheads
  6
ByLayer
 62
  256
370
   -1
100
AcDbLine
 10
36.74135985664221
 20
26.22021968869356
 11
36.74135777521398
 21
25.97021968869355
  0
LINE
  5
36F
100
AcDbEntity
  8
Bulkheads
  6
ByLayer
 62
  256
370
   -1
100
AcDbLine
 10
35.91369854864118
 20
28.81714660445359
 11
35.78869854864118
 21
28.81714660445359
  0
LINE
  5
370
100
AcDbEntity
  8
Bulkheads
  6
ByLayer
 62
  256
370
   -1
100
AcDbLine
 10
35.08601770080036
 20
28.56714660445358
 11
34.83601770079169
 21
28.56714660445358
  0
LINE
  5
371
100
AcDbEntity
  8
Bulkheads
  6
ByLayer
 62
  256
370
   -1
100
AcDbLine
 10
34.83603724063148
 20
26.22021968869356
 11
35.08603724064014
 21
26.22021968869356
  0
LINE
  5
372
100
AcDbEntity
  8
Bulkheads
  6
ByLayer
 62
  256
370
   -1
100
AcDbLine
 10
35.08601561937213
 20
28.81714660445359
 11
35.08601770080036
 21
28.56714660445358
  0
LINE
  5
373
100
AcDbEntity
  8
Bulkheads
  6
ByLayer
 62
  256
370
   -1
100
AcDbLine
 10
35.08603724064014
 20
26.22021968869356
 11
35.08603932206838
 21
25.97021968869355
  0
LINE
  5
374
100
AcDbEntity
  8
Bulkheads
  6
ByLayer
 62
  256
370
   -1
100
AcDbLine
 10
36.99137939649066
 20
28.56714660445358
 11
36.99135985665088
 21
26.22021968869356
  0
LINE
  5
375
100
AcDbEntity
  8
Bulkheads
  6
ByLayer
 62
  256
370
   -1
100
AcDbLine
 10
34.83601770079169
 20
28.56714660445358
 11
34.83603724063148
 21
26.22021968869356
  0
LINE
  5
376
100
AcDbEntity
  8
Bulkheads
  6
ByLayer
 62
  256
370
   -1
100
AcDbLine
 10
35.91369854864118
 20
28.81714660445359
 11
35.08601561937213
 21
28.81714660445359
  0
LINE
  5
377
100
AcDbEntity
  8
Bulkheads
  6
ByLayer
 62
  256
370
   -1
100
AcDbLine
 10
35.08603932206837
 20
25.97021968869356
 11
35.91369854864118
 21
25.97021968869356
  0
LINE
  5
378
100
AcDbEntity
  8
Bulkheads
  6
ByLayer
 62
  256
370
   -1
100
AcDbLine
 10
35.91369854864118
 20
28.81714660445359
 11
36.74138147791023
 21
28.81714660445359
  0
LINE
  5
379
100
AcDbEntity
  8
Bulkheads
  6
ByLayer
 62
  256
370
   -1
100
AcDbLine
 10
36.74135777521399
 20
25.97021968869356
 11
35.91369854864118
 21
25.97021968869356
  0
LINE
  5
37A
100
AcDbEntity
  8
Bulkheads
  6
ByLayer
 62
  256
370
   -1
100
AcDbLine
 10
35.91369854864118
 20
27.81166142184941
 11
34.83602399074446
 21
27.81166142184941
  0
LINE
  5
37B
100
AcDbEntity
  8
Bulkheads
  6
ByLayer
 62
  256
370
   -1
100
AcDbLine
 10
35.91369854864118
 20
27.81166142184941
 11
36.99137310653791
 21
27.81166142184941
  0
LINE
  5
37C
100
AcDbEntity
  8
Bulkheads
  6
ByLayer
 62
  256
370
   -1
100
AcDbLine
 10
35.91369854864118
 20
25.97021968869356
 11
35.91369854864118
 21
28.81714660445359
  0
MTEXT
  5
37D
100
AcDbEntity
  8
Bulkheads
  6
ByLayer
 62
  256
370
   -1
100
AcDbMText
 10
36.20253564873406
 20
26.30794058993279
 30
0
 40
0.25
 41
0.3333333333333333
 71
    1
 72
    1
  1
P2
  7
standard
210
0
220
0
230
1
 50
0
 73
    2
 44
1
  0
LINE
  5
37E
100
AcDbEntity
  8
Bulkheads
  6
ByLayer
 62
  256
370
   -1
100
AcDbLine
 10
35.91369854864118
 20
28.56714660445359
 11
35.46101978224159
 21
28.56714660445359
  0
ARC
  5
37F
100
AcDbEntity
  8
Bulkheads
  6
ByLayer
 62
  256
370
   -1
100
AcDbCircle
 10
35.46101978224159
 20
28.31714660445359
 40
0.25
100
AcDbArc
 50
90
 51
180.0004770282129
  0
LINE
  5
380
100
AcDbEntity
  8
Bulkheads
  6
ByLayer
 62
  256
370
   -1
100
AcDbLine
 10
35.91369854864118
 20
28.56714660445359
 11
36.36637731504076
 21
28.56714660445359
  0
ARC
  5
381
100
AcDbEntity
  8
Bulkheads
  6
ByLayer
 62
  256
370
   -1
100
AcDbCircle
 10
36.36637731504076
 20
28.31714660445359
 40
0.25
100
AcDbArc
 50
359.9995229717871
 51
90
  0
LINE
  5
382
100
AcDbEntity
  8
Bulkheads
  6
ByLayer
 62
  256
370
   -1
100
AcDbLine
 10
36.6163773150321
 20
28.31714452302536
 11
36.61636610090525
 21
26.97021760726533
  0
ARC
  5
383
100
AcDbEntity
  8
Bulkheads
  6
ByLayer
 62
  256
370
   -1
100
AcDbCircle
 10
36.36636610091392
 20
26.97021968869356
 40
0.25
100
AcDbArc
 50
270
 51
359.9995229717871
  0
LINE
  5
384
100
AcDbEntity
  8
Bulkheads
  6
ByLayer
 62
  256
370
   -1
100
AcDbLine
 10
35.46103099636844
 20
26.72021968869356
 11
36.36636610091392
 21
26.72021968869356
  0
LINE
  5
385
100
AcDbEntity
  8
Bulkheads
  6
ByLayer
 62
  256
370
   -1
100
AcDbLine
 10
35.21101978225025
 20
28.31714452302536
 11
35.2110309963771
 21
26.97021760726533
  0
ARC
  5
386
100
AcDbEntity
  8
Bulkheads
  6
ByLayer
 62
  256
370
   -1
100
AcDbCircle
 10
35.46103099636844
 20
26.97021968869356
 40
0.25
100
AcDbArc
 50
180.0004770282129
 51
270
  0
LINE
  5
387
100
AcDbEntity
  8
0
  6
ByLayer
 62
  256
370
   -1
100
AcDbLine
 10
8.255378851613564
 20
30.15016781967216
 11
7.802700085213974
 21
30.15016781967216
  0
ARC
  5
388
100
AcDbEntity
  8
0
  6
ByLayer
 62
  256
370
   -1
100
AcDbCircle
 10
7.802700085213974
 20
29.90016781967216
 40
0.25
100
AcDbArc
 50
90
 51
180.0004770282129
  0
LINE
  5
389
100
AcDbEntity
  8
0
  6
ByLayer
 62
  256
370
   -1
100
AcDbLine
 10
8.255378851613564
 20
30.15016781967216
 11
8.708057618013154
 21
30.15016781967216
  0
ARC
  5
38A
100
AcDbEntity
  8
0
  6
ByLayer
 62
  256
370
   -1
100
AcDbCircle
 10
8.708057618013154
 20
29.90016781967216
 40
0.25
100
AcDbArc
 50
359.9995229717871
 51
90
  0
LINE
  5
38B
100
AcDbEntity
  8
0
  6
ByLayer
 62
  256
370
   -1
100
AcDbLine
 10
7.552700085222638
 20
29.90016573824392
 11
7.552711299349487
 21
28.55323882248391
  0
ARC
  5
38C
100
AcDbEntity
  8
0
  6
ByLayer
 62
  256
370
   -1
100
AcDbCircle
 10
7.802711299340821
 20
28.55324090391214
 40
0.25
100
AcDbArc
 50
180.0004770282129
 51
270
  0
LINE
  5
38D
100
AcDbEntity
  8
0
  6
ByLayer
 62
  256
370
   -1
100
AcDbLine
 10
8.95805761800449
 20
29.90016573824392
 11
8.958046403877644
 21
28.55323882248391
  0
LINE
  5
38E
100
AcDbEntity
  8
0
  6
ByLayer
 62
  256
370
   -1
100
AcDbLine
 10
8.708046403886307
 20
28.30324090391214
 11
7.802711299340821
 21
28.30324090391214
  0
ARC
  5
38F
100
AcDbEntity
  8
0
  6
ByLayer
 62
  256
370
   -1
100
AcDbCircle
 10
8.708046403886307
 20
28.55324090391214
 40
0.25
100
AcDbArc
 50
270
 51
359.9995229717871
  0
MTEXT
  5
390
100
AcDbEntity
  8
Hardware
  6
ByLayer
 62
  256
370
   -1
100
AcDbMText
 10
13.66242412349784
 20
15.8275603562249
 30
0
 40
0.125
 41
1.701388953174806
 71
    1
 72
    1
  1
Aileron servo wiring\P
  7
standard
210
0
220
0
230
1
 50
90
 73
    2
 44
1
  0
LINE
  5
391
100
AcDbEntity
  8
0
  6
ByLayer
 62
  256
370
   -1
100
AcDbLine
 10
25.39348064072862
 20
17.88459880444917
 11
25.38039465860943
 21
17.63490339093962
  0
LINE
  5
392
100
AcDbEntity
  8
0
  6
ByLayer
 62
  256
370
   -1
100
AcDbLine
 10
30.36623957181395
 20
17.88459085304497
 11
30.3793247554109
 21
17.63489539768792
  0
MTEXT
  5
393
100
AcDbEntity
  8
0
  6
ByLayer
 62
  256
370
   -1
100
AcDbMText
 10
13.20414974893997
 20
33.82965864629875
 30
0
 40
0.125
 41
1.829861161508136
 71
    1
 72
    1
  1
3/4" (2 degrees) PER\PPANEL dihedral here
  7
iso
210
0
220
0
230
1
 50
0
 73
    2
 44
1
  0
LINE
  5
394
100
AcDbEntity
  8
0
  6
ByLayer
 62
  256
370
   -1
100
AcDbLine
 10
25.38039465860943
 20
17.63490339093962
 11
27.87985964167364
 21
17.54762015041333
  0
LINE
  5
395
100
AcDbEntity
  8
0
  6
ByLayer
 62
  256
370
   -1
100
AcDbLine
 10
30.3793247554109
 20
17.63489539768792
 11
27.87985964167364
 21
17.5476201555969
  0
LINE
  5
396
100
AcDbEntity
  8
0
  6
ByLayer
 62
  256
370
   -1
100
AcDbLine
 10
30.37060068024453
 20
17.88474313234344
 11
27.87985964167364
 21
17.79777251373684
  0
LINE
  5
397
100
AcDbEntity
  8
0
  6
ByLayer
 62
  256
370
   -1
100
AcDbLine
 10
25.38911953278505
 20
17.88475109769439
 11
27.87985964167364
 21
17.79777253648804
  0
LINE
  5
398
100
AcDbEntity
  8
0
  6
ByLayer
 62
  256
370
   -1
100
AcDbLine
 10
27.87985964167364
 20
17.54762015041333
 11
27.87985964167364
 21
17.79777253648804
  0
LINE
  5
399
100
AcDbEntity
  8
0
  6
ByLayer
 62
  256
370
   -1
100
AcDbLine
 10
29.64336321475393
 20
29.00123765821662
 11
26.15958870040998
 21
29.00123765821662
  0
SPLINE
  5
39A
100
AcDbEntity
  8
0
  6
ByLayer
 62
  256
370
   -1
100
AcDbSpline
210
0
220
0
230
0
 70
    8
 71
    2
 72
    7
 73
    4
 74
    0
 42
1e-07
 43
1e-07
 40
0
 40
0
 40
0
 40
0.5
 40
1
 40
1
 40
1
 10
29.64336321475393
 20
29.23945937819848
 30
0
 10
28.73976130153114
 20
29.24262640399937
 30
0
 10
26.98981095889131
 20
29.17851560832286
 30
0
 10
26.15958870040998
 20
29.00123765821662
 30
0
  0
LINE
  5
39B
100
AcDbEntity
  8
0
  6
ByLayer
 62
  256
370
   -1
100
AcDbLine
 10
29.64336321475393
 20
29.23945937819848
 11
29.64336321475393
 21
29.00123765821662
  0
MTEXT
  5
39C
100
AcDbEntity
  8
0
  6
ByLayer
 62
  256
370
   -1
100
AcDbMText
 10
6.242953422842331
 20
34.43742093748997
 30
0
 40
0.125
 41
1.614583383730356
 71
    1
 72
    1
  1
Foam Parts List\P\P1/4" foam\P\PF1 wing saddle (2)\PF2 servo mount (2)\PWing ribs (8)\P
  7
iso
210
0
220
0
230
1
 50
0
 73
    2
 44
1
  0
LINE
  5
39D
100
AcDbEntity
  8
0
  6
ByLayer
 62
  256
370
   -1
100
AcDbLine
 10
10.55918692869443
 20
34.16638022841572
 11
14.55859145428162
 21
34.16638022841572
  0
LINE
  5
39E
100
AcDbEntity
  8
0
  6
ByLayer
 62
  256
370
   -1
100
AcDbLine
 10
14.3086
 20
15.7836150311932
 11
14.3086
 21
34.16638022841572
  0
LINE
  5
39F
100
AcDbEntity
  8
0
  6
ByLayer
 62
  256
370
   -1
100
AcDbLine
 10
14.3086
 20
34.16638022841572
 11
14.3086
 21
35.5843
  0
LINE
  5
3A0
100
AcDbEntity
  8
0
  6
ByLayer
 62
  256
370
   -1
100
AcDbLine
 10
14.55859145428162
 20
34.16638022841572
 11
14.55859145428161
 21
13.2836150311932
  0
MTEXT
  5
3A1
100
AcDbEntity
  8
0
  6
ByLayer
 62
  256
370
   -1
100
AcDbMText
 10
11.56175151638264
 20
34.95950333667758
 30
0
 40
0.25
 41
2.513888835888386
 71
    1
 72
    1
  1
Scrap foam fill
  7
standard
210
0
220
0
230
1
 50
0
 73
    2
 44
1
  0
MTEXT
  5
3A2
100
AcDbEntity
  8
0
  6
ByLayer
 62
  256
370
   -1
100
AcDbMText
 10
12.20204304745752
 20
34.1033563585968
 30
0
 40
0.125
 41
0.2083333333333391
 71
    1
 72
    1
  1
Rib
  7
standard
210
0
220
0
230
1
 50
0
 73
    2
 44
1
  0
LINE
  5
3A3
100
AcDbEntity
  8
0
  6
ByLayer
 62
  256
370
   -1
100
AcDbLine
 10
10.55860571183818
 20
13.7836150311932
 11
13.93359145428161
 21
13.7836150311932
  0
LINE
  5
3A4
100
AcDbEntity
  8
0
  6
ByLayer
 62
  256
370
   -1
100
AcDbLine
 10
10.55859858305989
 20
13.5336150311932
 11
13.93359145428161
 21
13.5336150311932
  0
MTEXT
  5
3A5
100
AcDbEntity
  8
0
  6
ByLayer
 62
  256
370
   -1
100
AcDbMText
 10
13.20315216096787
 20
13.49856140757747
 30
0
 40
0.125
 41
0.2083333333333391
 71
    1
 72
    1
  1
Rib
  7
standard
210
0
220
0
230
1
 50
0
 73
    2
 44
1
  0
MTEXT
  5
3A6
100
AcDbEntity
  8
0
  6
ByLayer
 62
  256
370
   -1
100
AcDbMText
 10
13.21449063130654
 20
13.72203115644734
 30
0
 40
0.125
 41
0.2083333333333391
 71
    1
 72
    1
  1
Rib
  7
standard
210
0
220
0
230
1
 50
0
 73
    2
 44
1
  0
LINE
  5
3A7
100
AcDbEntity
  8
0
  6
ByLayer
 62
  256
370
   -1
100
AcDbLine
 10
14.05859145428161
 20
13.28360929059424
 11
14.05859145428161
 21
34.16638022841572
  0
LINE
  5
3A8
100
AcDbEntity
  8
0
  6
ByLayer
 62
  256
370
   -1
100
AcDbLine
 10
10.55918692869443
 20
33.91638022841572
 11
14.05859145428161
 21
33.91638022841572
  0
MTEXT
  5
3A9
100
AcDbEntity
  8
0
  6
ByLayer
 62
  256
370
   -1
100
AcDbMText
 10
12.72919174497723
 20
25.25642604370078
 30
0
 40
0.125
 41
0.2083333333333391
 71
    1
 72
    1
  1
Rib
  7
standard
210
0
220
0
230
1
 50
0
 73
    2
 44
1
  0
LINE
  5
3AA
100
AcDbEntity
  8
0
  6
ByLayer
 62
  256
370
   -1
100
AcDbLine
 10
14.06114174314868
 20
25.29456799105103
 11
10.55893394796449
 21
25.29456799105104
  0
LINE
  5
3AB
100
AcDbEntity
  8
0
  6
ByLayer
 62
  256
370
   -1
100
AcDbLine
 10
14.06114174314868
 20
25.04456799105103
 11
10.5589268191862
 21
25.04456799105103
  0
LINE
  5
3AC
100
AcDbEntity
  8
Reference Lines
  6
ByLayer
 62
  256
370
   -1
100
AcDbLine
 10
63.84815122478825
 20
5.730332073231414
 11
63.84815122478825
 21
5.667832073231414
  0
LWPOLYLINE
  5
3AD
100
AcDbEntity
  8
0
  6
ByLayer
 62
  256
370
   -1
100
AcDbPolyline
 90
    4
 70
    1
 43
0
 10
22.5730538453739
 20
23.73178577136614
 10
22.5105538453739
 20
23.73178577136614
 10
22.5105538453739
 20
29.73178577136614
 10
22.5730538453739
 20
29.73178577136614
  0
LWPOLYLINE
  5
3AE
100
AcDbEntity
  8
0
  6
ByLayer
 62
  256
370
   -1
100
AcDbPolyline
 90
    4
 70
    1
 43
0
 10
22.57305384551459
 20
23.73176899673368
 10
22.51055384552339
 20
23.73176794830359
 10
22.51065449481265
 20
17.73176794914778
 10
22.57315449480386
 20
17.73176899757788
  0
MTEXT
  5
3AF
100
AcDbEntity
  8
0
  6
ByLayer
 62
  256
370
   -1
100
AcDbMText
 10
21.99137986798548
 20
19.94493793324094
 30
0
 40
0.125
 41
3.274305619841487
 71
    1
 72
    1
  1
1/16" X 1/4" X 12" carbon fibre strip
  7
standard
210
0
220
0
230
1
 50
90
 73
    2
 44
1
  0
LINE
  5
3B0
100
AcDbEntity
  8
Hardware
  6
ByLayer
 62
  256
370
   -1
100
AcDbLine
 10
36.54258708814825
 20
31.08894564138821
 11
37.04258708814825
 21
31.08894564138821
  0
LINE
  5
3B1
100
AcDbEntity
  8
Hardware
  6
ByLayer
 62
  256
370
   -1
100
AcDbLine
 10
25.04258708814825
 20
31.08894564138821
 11
25.54258708814825
 21
31.08894564138821
  0
LINE
  5
3B2
100
AcDbEntity
  8
Hardware
  6
ByLayer
 62
  256
370
   -1
100
AcDbLine
 10
36.54258708814825
 20
30.99519564138821
 11
37.04258708814825
 21
30.99519564138821
  0
LINE
  5
3B3
100
AcDbEntity
  8
Hardware
  6
ByLayer
 62
  256
370
   -1
100
AcDbLine
 10
25.04258708814825
 20
30.99519564138821
 11
25.54258708814825
 21
30.99519564138821
  0
ARC
  5
3B4
100
AcDbEntity
  8
Hardware
  6
ByLayer
 62
  256
370
   -1
100
AcDbCircle
 10
31.04258708814825
 20
34.84882848248448
 40
0.09375
100
AcDbArc
 50
51.34019174591125
 51
128.6598082540887
  0
LINE
  5
3B5
100
AcDbEntity
  8
Hardware
  6
ByLayer
 62
  256
370
   -1
100
AcDbLine
 10
35.98402192744003
 20
31.01573919050292
 11
31.10115224885648
 21
34.92203493336976
  0
LINE
  5
3B6
100
AcDbEntity
  8
Hardware
  6
ByLayer
 62
  256
370
   -1
100
AcDbLine
 10
36.04258708814826
 20
30.99519564138821
 11
36.54258708814825
 21
30.99519564138821
  0
ARC
  5
3B7
100
AcDbEntity
  8
Hardware
  6
ByLayer
 62
  256
370
   -1
100
AcDbCircle
 10
36.04258708814826
 20
31.08894564138821
 40
0.09375
100
AcDbArc
 50
231.3401917459095
 51
270
  0
LINE
  5
3B8
100
AcDbEntity
  8
Hardware
  6
ByLayer
 62
  256
370
   -1
100
AcDbLine
 10
30.98402192744003
 20
34.92203493336976
 11
26.10115224885649
 21
31.01573919050293
  0
LINE
  5
3B9
100
AcDbEntity
  8
Hardware
  6
ByLayer
 62
  256
370
   -1
100
AcDbLine
 10
25.54258708814825
 20
30.99519564138821
 11
26.04258708814826
 21
30.99519564138821
  0
ARC
  5
3BA
100
AcDbEntity
  8
Hardware
  6
ByLayer
 62
  256
370
   -1
100
AcDbCircle
 10
26.04258708814826
 20
31.08894564138821
 40
0.09375
100
AcDbArc
 50
270
 51
308.6598082540914
  0
LWPOLYLINE
  5
3BB
100
AcDbEntity
  8
Hardware
  6
ByLayer
 62
  256
370
   -1
100
AcDbPolyline
 90
    8
 70
    0
 43
0
 10
36.54258708814825
 20
31.08894564138821
 10
36.07547281246308
 20
31.08894564138821
 42
-0.1703036214138282
 10
36.01690765175486
 20
31.10948919050292
 10
31.10115224885648
 20
35.04209351282163
 42
0.3507810593582022
 10
30.98402192744002
 20
35.04209351282162
 10
26.06826652454164
 20
31.10948919050293
 42
-0.1703036214138325
 10
26.00970136383341
 20
31.08894564138821
 10
25.54258708814825
 20
31.08894564138821
  0
LINE
  5
3BC
100
AcDbEntity
  8
Hardware
  6
ByLayer
 62
  256
370
   -1
100
AcDbLine
 10
25.04258708814825
 20
31.08894564138821
 11
25.04258708814825
 21
30.99519564138821
  0
LINE
  5
3BD
100
AcDbEntity
  8
Hardware
  6
ByLayer
 62
  256
370
   -1
100
AcDbLine
 10
37.04258708814825
 20
30.99519564138821
 11
37.04258708814825
 21
31.08894564138821
  0
MTEXT
  5
3BE
100
AcDbEntity
  8
Hardware
  6
ByLayer
 62
  256
370
   -1
100
AcDbMText
 10
29.89716935586272
 20
33.21968455378182
 30
0
 40
0.125
 41
2.024305619841476
 71
    1
 72
    1
  1
3/32" music wire LG/UC
  7
standard
210
0
220
0
230
1
 50
360
 73
    2
 44
1
  0
SPLINE
  5
3BF
100
AcDbEntity
  8
0
  6
ByLayer
 62
  256
370
   -1
100
AcDbSpline
210
0
220
0
230
0
 70
    8
 71
    3
 72
   10
 73
    6
 74
    0
 42
1e-07
 43
1e-07
 40
0
 40
0
 40
0
 40
0
 40
0.3333333333333333
 40
0.6666666666666666
 40
1
 40
1
 40
1
 40
1
 10
43.0180085157147
 20
22.31135930078679
 30
0
 10
43.28152692777225
 20
23.7294450541279
 30
0
 10
45.72205869930791
 20
24.00381668038313
 30
0
 10
48.41147693108203
 20
23.44068476876106
 30
0
 10
51.03386925757941
 20
22.08898941774163
 30
0
 10
51.03392450699238
 20
22.08898941774163
 30
0
  0
LINE
  5
3C0
100
AcDbEntity
  8
0
  6
ByLayer
 62
  256
370
   -1
100
AcDbLine
 10
51.02374451393064
 20
6.491094103564278
 11
51.02418896539196
 21
22.07761689776563
  0
LINE
  5
3C1
100
AcDbEntity
  8
0
  6
ByLayer
 62
  256
370
   -1
100
AcDbLine
 10
49.14874451316833
 20
6.491094103564278
 11
51.02374451393062
 21
6.491094103564278
  0
LINE
  5
3C2
100
AcDbEntity
  8
0
  6
ByLayer
 62
  256
370
   -1
100
AcDbLine
 10
49.14874273097375
 20
6.428594103564278
 11
51.02374273173604
 21
6.428594103564278
  0
LINE
  5
3C3
100
AcDbEntity
  8
0
  6
ByLayer
 62
  256
370
   -1
100
AcDbLine
 10
49.14874273097375
 20
6.428594103564278
 11
49.14921464692755
 21
22.97827255100534
  0
MTEXT
  5
3C4
100
AcDbEntity
  8
0
  6
ByLayer
 62
  256
370
   -1
100
AcDbMText
 10
46.60716039045212
 20
10.91902008349907
 30
0
 40
0.125
 41
1.930555812699173
 71
    1
 72
    1
  1
1/4" spruce/bass spar
  7
standard
210
0
220
0
230
1
 50
90
 73
    2
 44
1
  0
MTEXT
  5
3C5
100
AcDbEntity
  8
0
  6
ByLayer
 62
  256
370
   -1
100
AcDbMText
 10
46.80340472298322
 20
9.086343921311981
 30
0
 40
0.125
 41
2.899305555555585
 71
    1
 72
    1
  1
KFM top and middle layer overlap
  7
standard
210
0
220
0
230
1
 50
90
 73
    2
 44
1
  0
MTEXT
  5
3C6
100
AcDbEntity
  8
0
  6
ByLayer
 62
  256
370
   -1
100
AcDbMText
 10
48.83535287833563
 20
15.52577387746681
 30
0
 40
0.125
 41
2.180555555555567
 71
    1
 72
    1
  1
Rear of KFM Middle layer
  7
standard
210
0
220
0
230
1
 50
90
 73
    2
 44
1
  0
LINE
  5
3C7
100
AcDbEntity
  8
0
  6
ByLayer
 62
  256
370
   -1
100
AcDbLine
 10
46.39241304130186
 20
3.928594103564278
 11
46.51741304130186
 21
3.928594103564278
  0
LINE
  5
3C8
100
AcDbEntity
  8
0
  6
ByLayer
 62
  256
370
   -1
100
AcDbLine
 10
46.39241304130186
 20
1.428588362965318
 11
46.39241304130186
 21
3.928594103564278
  0
LINE
  5
3C9
100
AcDbEntity
  8
0
  6
ByLayer
 62
  256
370
   -1
100
AcDbLine
 10
46.76741304130186
 20
3.928594103564278
 11
46.89241304130186
 21
3.928594103564278
  0
LINE
  5
3CA
100
AcDbEntity
  8
0
  6
ByLayer
 62
  256
370
   -1
100
AcDbLine
 10
46.51741304130186
 20
1.428588362965318
 11
46.51741304130186
 21
13.42859410356428
  0
LINE
  5
3CB
100
AcDbEntity
  8
0
  6
ByLayer
 62
  256
370
   -1
100
AcDbLine
 10
46.89242158702025
 20
3.928579072371076
 11
46.89242158702025
 21
1.428579072371077
  0
LINE
  5
3CC
100
AcDbEntity
  8
0
  6
ByLayer
 62
  256
370
   -1
100
AcDbLine
 10
46.76742158702025
 20
1.428579072371077
 11
46.76742158702025
 21
3.928579072371076
  0
MTEXT
  5
3CD
100
AcDbEntity
  8
0
  6
ByLayer
 62
  256
370
   -1
100
AcDbMText
 10
47.15219313835222
 20
8.392797125051557
 30
0
 40
0.125
 41
1.225694508730373
 71
    1
 72
    1
  1
Embed & Glue\Pservos in KFM \Players 1 and 3
  7
standard
210
0
220
0
230
1
 50
0
 73
    2
 44
1
  0
LINE
  5
3CE
100
AcDbEntity
  8
0
  6
ByLayer
 62
  256
370
   -1
100
AcDbLine
 10
43.01741304113816
 20
1.428588362965318
 11
51.02360015600654
 21
1.428588362965318
  0
LINE
  5
3CF
100
AcDbEntity
  8
0
  6
ByLayer
 62
  256
370
   -1
100
AcDbLine
 10
51.02360015600654
 20
1.428588362965318
 11
51.02363801330262
 21
2.756210521670877
  0
LINE
  5
3D0
100
AcDbEntity
  8
0
  6
ByLayer
 62
  256
370
   -1
100
AcDbLine
 10
51.02363801330262
 20
2.756210521670877
 11
51.02374273173606
 21
6.428594103564278
  0
LINE
  5
3D1
100
AcDbEntity
  8
0
  6
ByLayer
 62
  256
370
   -1
100
AcDbLine
 10
49.01438889656257
 20
1.428594103564277
 11
49.01438889656257
 21
2.756227250102237
  0
LINE
  5
3D2
100
AcDbEntity
  8
0
  6
ByLayer
 62
  256
370
   -1
100
AcDbLine
 10
49.01438889656257
 20
2.756227250102237
 11
49.01438889656257
 21
23.03566078195976
  0
LINE
  5
3D3
100
AcDbEntity
  8
0
  6
ByLayer
 62
  256
370
   -1
100
AcDbLine
 10
47.01741304130187
 20
23.68274686808079
 11
47.01741304130186
 21
2.756243876349957
  0
LINE
  5
3D4
100
AcDbEntity
  8
0
  6
ByLayer
 62
  256
370
   -1
100
AcDbLine
 10
47.01741304130186
 20
2.756243876349957
 11
47.01741304130186
 21
1.428594103564277
  0
LINE
  5
3D5
100
AcDbEntity
  8
0
  6
ByLayer
 62
  256
370
   -1
100
AcDbLine
 10
43.01741304130186
 20
1.428594103564277
 11
43.01745090033499
 21
2.756277178886508
  0
LINE
  5
3D6
100
AcDbEntity
  8
0
  6
ByLayer
 62
  256
370
   -1
100
AcDbLine
 10
43.01745090033499
 20
2.756277178886508
 11
43.0180085157147
 21
22.31135930078679
  0
LINE
  5
3D7
100
AcDbEntity
  8
0
  6
ByLayer
 62
  256
370
   -1
100
AcDbLine
 10
45.15187308828533
 20
1.328004266628882
 11
45.15187308828533
 21
1.515504266628882
  0
LINE
  5
3D8
100
AcDbEntity
  8
0
  6
ByLayer
 62
  256
370
   -1
100
AcDbLine
 10
45.15187308828533
 20
1.515504266628882
 11
42.74562308828533
 21
1.515504266628882
  0
ARC
  5
3D9
100
AcDbEntity
  8
0
  6
ByLayer
 62
  256
370
   -1
100
AcDbCircle
 10
42.74562308828533
 20
1.421754266628882
 40
0.09375
100
AcDbArc
 50
90
 51
180
  0
LINE
  5
3DA
100
AcDbEntity
  8
0
  6
ByLayer
 62
  256
370
   -1
100
AcDbLine
 10
42.74562308828533
 20
1.328004266628882
 11
45.15187308828533
 21
1.328004266628882
  0
ARC
  5
3DB
100
AcDbEntity
  8
0
  6
ByLayer
 62
  256
370
   -1
100
AcDbCircle
 10
42.74562308828533
 20
1.421754266628882
 40
0.09375
100
AcDbArc
 50
180
 51
270
  0
MTEXT
  5
3DC
100
AcDbEntity
  8
0
  6
ByLayer
 62
  256
370
   -1
100
AcDbMText
 10
43.24730355711628
 20
1.500148621093741
 30
0
 40
0.125
 41
1.524305555555579
 71
    1
 72
    1
  1
3/16 X 2.5" dowel
  7
standard
210
0
220
0
230
1
 50
0
 73
    2
 44
1
  0
LINE
  5
3DD
100
AcDbEntity
  8
0
  6
ByLayer
 62
  256
370
   -1
100
AcDbLine
 10
43.0180085157147
 20
22.31135930078679
 11
47.01741304130187
 21
22.31135930078679
  0
LINE
  5
3DE
100
AcDbEntity
  8
0
  6
ByLayer
 62
  256
370
   -1
100
AcDbLine
 10
46.76742158702025
 20
22.31135930078679
 11
46.76742158702025
 21
23.72927907237107
  0
MTEXT
  5
3DF
100
AcDbEntity
  8
0
  6
ByLayer
 62
  256
370
   -1
100
AcDbMText
 10
44.0205731034029
 20
23.10448240904865
 30
0
 40
0.25
 41
2.513888835888386
 71
    1
 72
    1
  1
Scrap foam fill
  7
standard
210
0
220
0
230
1
 50
0
 73
    2
 44
1
  0
MTEXT
  5
3E0
100
AcDbEntity
  8
0
  6
ByLayer
 62
  256
370
   -1
100
AcDbMText
 10
44.66086463447778
 20
22.24833543096787
 30
0
 40
0.125
 41
0.2083333333333391
 71
    1
 72
    1
  1
Rib
  7
standard
210
0
220
0
230
1
 50
0
 73
    2
 44
1
  0
LINE
  5
3E1
100
AcDbEntity
  8
0
  6
ByLayer
 62
  256
370
   -1
100
AcDbLine
 10
43.01742729885844
 20
1.928594103564272
 11
46.39241304130187
 21
1.928594103564272
  0
LINE
  5
3E2
100
AcDbEntity
  8
0
  6
ByLayer
 62
  256
370
   -1
100
AcDbLine
 10
43.01742017008016
 20
1.678594103564272
 11
46.39241304130187
 21
1.678594103564272
  0
MTEXT
  5
3E3
100
AcDbEntity
  8
0
  6
ByLayer
 62
  256
370
   -1
100
AcDbMText
 10
45.66197374798813
 20
1.643540479948542
 30
0
 40
0.125
 41
0.2083333333333391
 71
    1
 72
    1
  1
Rib
  7
standard
210
0
220
0
230
1
 50
0
 73
    2
 44
1
  0
MTEXT
  5
3E4
100
AcDbEntity
  8
0
  6
ByLayer
 62
  256
370
   -1
100
AcDbMText
 10
45.67331221832679
 20
1.867010228818409
 30
0
 40
0.125
 41
0.2083333333333391
 71
    1
 72
    1
  1
Rib
  7
standard
210
0
220
0
230
1
 50
0
 73
    2
 44
1
  0
LINE
  5
3E5
100
AcDbEntity
  8
0
  6
ByLayer
 62
  256
370
   -1
100
AcDbLine
 10
43.0180085157147
 20
22.06135930078679
 11
46.51741304130187
 21
22.06135930078679
  0
MTEXT
  5
3E6
100
AcDbEntity
  8
0
  6
ByLayer
 62
  256
370
   -1
100
AcDbMText
 10
45.18801333199748
 20
13.40140511607185
 30
0
 40
0.125
 41
0.2083333333333391
 71
    1
 72
    1
  1
Rib
  7
standard
210
0
220
0
230
1
 50
0
 73
    2
 44
1
  0
LINE
  5
3E7
100
AcDbEntity
  8
0
  6
ByLayer
 62
  256
370
   -1
100
AcDbLine
 10
46.51996333016894
 20
13.4395470634221
 11
43.01775553498476
 21
13.43954706342211
  0
LINE
  5
3E8
100
AcDbEntity
  8
0
  6
ByLayer
 62
  256
370
   -1
100
AcDbLine
 10
46.51996333016894
 20
13.1895470634221
 11
43.01774840620646
 21
13.1895470634221
  0
LINE
  5
3E9
100
AcDbEntity
  8
0
  6
ByLayer
 62
  256
370
   -1
100
AcDbLine
 10
46.76739095700229
 20
3.928598616873991
 11
46.76739095700229
 21
22.31136861687399
  0
LINE
  5
3EA
100
AcDbEntity
  8
0
  6
ByLayer
 62
  256
370
   -1
100
AcDbLine
 10
46.51739095700229
 20
1.428588616873991
 11
46.51739095700229
 21
22.31136861687399
  0
LINE
  5
3EB
100
AcDbEntity
  8
0
  6
ByLayer
 62
  256
370
   -1
100
AcDbLine
 10
44.9174366430998
 20
2.256261360133291
 11
45.04243664304899
 21
2.256257795744151
  0
LINE
  5
3EC
100
AcDbEntity
  8
0
  6
ByLayer
 62
  256
370
   -1
100
AcDbLine
 10
45.04241304196143
 20
1.428588362965318
 11
45.04243664304899
 21
2.256257795744151
  0
LINE
  5
3ED
100
AcDbEntity
  8
0
  6
ByLayer
 62
  256
370
   -1
100
AcDbLine
 10
44.91741304191061
 20
1.428588362965318
 11
44.9174366430998
 21
2.256261360133291
  0
SPLINE
  5
3EE
100
AcDbEntity
  8
0
  6
ByLayer
 62
  256
370
   -1
100
AcDbSpline
210
0
220
0
230
0
 70
    8
 71
    3
 72
   10
 73
    6
 74
    0
 42
1e-07
 43
1e-07
 40
0
 40
0
 40
0
 40
0
 40
0.3333333333333333
 40
0.6666666666666666
 40
1
 40
1
 40
1
 40
1
 10
51.9294836777734
 20
22.35976415311607
 30
0
 10
52.19300208983095
 20
23.77784990645718
 30
0
 10
54.63353386136661
 20
24.05222153271241
 30
0
 10
57.32295209314073
 20
23.48908962109035
 30
0
 10
59.94534441963811
 20
22.13739427007092
 30
0
 10
59.94539966905109
 20
22.13739427007092
 30
0
  0
LINE
  5
3EF
100
AcDbEntity
  8
0
  6
ByLayer
 62
  256
370
   -1
100
AcDbLine
 10
59.93521967598932
 20
6.539498955893564
 11
59.93566412745066
 21
22.12602175009492
  0
LINE
  5
3F0
100
AcDbEntity
  8
0
  6
ByLayer
 62
  256
370
   -1
100
AcDbLine
 10
58.06021967522702
 20
6.539498955893564
 11
59.93521967598932
 21
6.539498955893564
  0
LINE
  5
3F1
100
AcDbEntity
  8
0
  6
ByLayer
 62
  256
370
   -1
100
AcDbLine
 10
58.06021789303245
 20
6.476998955893564
 11
59.93521789379476
 21
6.476998955893564
  0
LINE
  5
3F2
100
AcDbEntity
  8
0
  6
ByLayer
 62
  256
370
   -1
100
AcDbLine
 10
58.06021789303245
 20
6.476998955893564
 11
58.06068980898625
 21
23.02667740333463
  0
MTEXT
  5
3F3
100
AcDbEntity
  8
0
  6
ByLayer
 62
  256
370
   -1
100
AcDbMText
 10
55.5186355525108
 20
10.96742493582836
 30
0
 40
0.125
 41
1.930555812699173
 71
    1
 72
    1
  1
1/4" spruce/bass spar
  7
standard
210
0
220
0
230
1
 50
90
 73
    2
 44
1
  0
MTEXT
  5
3F4
100
AcDbEntity
  8
0
  6
ByLayer
 62
  256
370
   -1
100
AcDbMText
 10
55.71487988504192
 20
9.134748773641261
 30
0
 40
0.125
 41
2.899305555555585
 71
    1
 72
    1
  1
KFM top and middle layer overlap
  7
standard
210
0
220
0
230
1
 50
90
 73
    2
 44
1
  0
LINE
  5
3F5
100
AcDbEntity
  8
0
  6
ByLayer
 62
  256
370
   -1
100
AcDbLine
 10
55.30388820336056
 20
3.976998955893564
 11
55.42888820336056
 21
3.976998955893564
  0
LINE
  5
3F6
100
AcDbEntity
  8
0
  6
ByLayer
 62
  256
370
   -1
100
AcDbLine
 10
55.30388820336056
 20
1.476993215294604
 11
55.30388820336056
 21
3.976998955893564
  0
LINE
  5
3F7
100
AcDbEntity
  8
0
  6
ByLayer
 62
  256
370
   -1
100
AcDbLine
 10
55.67888820336056
 20
3.976998955893564
 11
55.80388820336056
 21
3.976998955893564
  0
LINE
  5
3F8
100
AcDbEntity
  8
0
  6
ByLayer
 62
  256
370
   -1
100
AcDbLine
 10
55.42888820336056
 20
1.476993215294604
 11
55.42888820336056
 21
13.47699895589356
  0
LINE
  5
3F9
100
AcDbEntity
  8
0
  6
ByLayer
 62
  256
370
   -1
100
AcDbLine
 10
55.80389674907895
 20
3.976983924700363
 11
55.80389674907895
 21
1.476983924700363
  0
LINE
  5
3FA
100
AcDbEntity
  8
0
  6
ByLayer
 62
  256
370
   -1
100
AcDbLine
 10
55.67889674907895
 20
1.476983924700363
 11
55.67889674907895
 21
3.976983924700363
  0
MTEXT
  5
3FB
100
AcDbEntity
  8
0
  6
ByLayer
 62
  256
370
   -1
100
AcDbMText
 10
56.06366830041092
 20
8.441201977380842
 30
0
 40
0.125
 41
1.225694508730373
 71
    1
 72
    1
  1
Embed & Glue\Pservos in KFM \Players 1 and 3
  7
standard
210
0
220
0
230
1
 50
0
 73
    2
 44
1
  0
LINE
  5
3FC
100
AcDbEntity
  8
0
  6
ByLayer
 62
  256
370
   -1
100
AcDbLine
 10
51.92888820319686
 20
1.476993215294604
 11
59.93507531806524
 21
1.476993215294604
  0
LINE
  5
3FD
100
AcDbEntity
  8
0
  6
ByLayer
 62
  256
370
   -1
100
AcDbLine
 10
59.93507531806524
 20
1.476993215294604
 11
59.93511317536134
 21
2.804615374000164
  0
LINE
  5
3FE
100
AcDbEntity
  8
0
  6
ByLayer
 62
  256
370
   -1
100
AcDbLine
 10
59.93511317536134
 20
2.804615374000164
 11
59.93521789379476
 21
6.476998955893564
  0
LINE
  5
3FF
100
AcDbEntity
  8
0
  6
ByLayer
 62
  256
370
   -1
100
AcDbLine
 10
57.92586405862127
 20
1.476998955893563
 11
57.92586405862127
 21
2.804632102431523
  0
LINE
  5
400
100
AcDbEntity
  8
0
  6
ByLayer
 62
  256
370
   -1
100
AcDbLine
 10
57.92586405862127
 20
2.804632102431523
 11
57.92586405862127
 21
23.08406563428904
  0
LINE
  5
401
100
AcDbEntity
  8
0
  6
ByLayer
 62
  256
370
   -1
100
AcDbLine
 10
51.92888820336056
 20
1.476998955893563
 11
51.92892606239369
 21
2.804682031215794
  0
LINE
  5
402
100
AcDbEntity
  8
0
  6
ByLayer
 62
  256
370
   -1
100
AcDbLine
 10
51.92892606239369
 20
2.804682031215794
 11
51.9294836777734
 21
22.35976415311607
  0
MTEXT
  5
403
100
AcDbEntity
  8
0
  6
ByLayer
 62
  256
370
   -1
100
AcDbMText
 10
53.57233979653648
 20
22.29674028329715
 30
0
 40
0.125
 41
0.2083333333333391
 71
    1
 72
    1
  1
Rib
  7
standard
210
0
220
0
230
1
 50
0
 73
    2
 44
1
  0
LINE
  5
404
100
AcDbEntity
  8
0
  6
ByLayer
 62
  256
370
   -1
100
AcDbLine
 10
51.92890246091714
 20
1.976998955893558
 11
55.30388820336057
 21
1.976998955893558
  0
LINE
  5
405
100
AcDbEntity
  8
0
  6
ByLayer
 62
  256
370
   -1
100
AcDbLine
 10
51.92889533213884
 20
1.726998955893558
 11
55.30388820336057
 21
1.726998955893558
  0
MTEXT
  5
406
100
AcDbEntity
  8
0
  6
ByLayer
 62
  256
370
   -1
100
AcDbMText
 10
54.57344891004684
 20
1.691945332277829
 30
0
 40
0.125
 41
0.2083333333333391
 71
    1
 72
    1
  1
Rib
  7
standard
210
0
220
0
230
1
 50
0
 73
    2
 44
1
  0
MTEXT
  5
407
100
AcDbEntity
  8
0
  6
ByLayer
 62
  256
370
   -1
100
AcDbMText
 10
54.58478738038549
 20
1.915415081147695
 30
0
 40
0.125
 41
0.2083333333333391
 71
    1
 72
    1
  1
Rib
  7
standard
210
0
220
0
230
1
 50
0
 73
    2
 44
1
  0
LINE
  5
408
100
AcDbEntity
  8
0
  6
ByLayer
 62
  256
370
   -1
100
AcDbLine
 10
51.9294836777734
 20
22.10976415311607
 11
55.42888820336057
 21
22.10976415311607
  0
MTEXT
  5
409
100
AcDbEntity
  8
0
  6
ByLayer
 62
  256
370
   -1
100
AcDbMText
 10
54.09948849405618
 20
13.44980996840113
 30
0
 40
0.125
 41
0.2083333333333391
 71
    1
 72
    1
  1
Rib
  7
standard
210
0
220
0
230
1
 50
0
 73
    2
 44
1
  0
LINE
  5
40A
100
AcDbEntity
  8
0
  6
ByLayer
 62
  256
370
   -1
100
AcDbLine
 10
55.43143849222764
 20
13.48795191575139
 11
51.92923069704344
 21
13.48795191575139
  0
LINE
  5
40B
100
AcDbEntity
  8
0
  6
ByLayer
 62
  256
370
   -1
100
AcDbLine
 10
55.43143849222764
 20
13.23795191575139
 11
51.92922356826516
 21
13.23795191575139
  0
LINE
  5
40C
100
AcDbEntity
  8
0
  6
ByLayer
 62
  256
370
   -1
100
AcDbLine
 10
55.67886611906099
 20
3.977003469203278
 11
55.67886611906099
 21
22.35977346920327
  0
LINE
  5
40D
100
AcDbEntity
  8
0
  6
ByLayer
 62
  256
370
   -1
100
AcDbLine
 10
55.42886611906099
 20
1.476993469203278
 11
55.42886611906099
 21
22.35977346920327
  0
LINE
  5
40E
100
AcDbEntity
  8
0
  6
ByLayer
 62
  256
370
   -1
100
AcDbLine
 10
51.9294836777734
 20
22.35976415311607
 11
55.67886611906099
 21
22.35976415311607
  0
LINE
  5
40F
100
AcDbEntity
  8
0
  6
ByLayer
 62
  256
370
   -1
100
AcDbLine
 10
60.60368508392263
 20
1.751734452929086
 11
60.60372294295578
 21
3.079417528251317
  0
LINE
  5
410
100
AcDbEntity
  8
0
  6
ByLayer
 62
  256
370
   -1
100
AcDbLine
 10
60.60372294295578
 20
3.079417528251317
 11
60.60428055833547
 21
22.6344996501516
  0
LINE
  5
411
100
AcDbEntity
  8
0
  6
ByLayer
 62
  256
370
   -1
100
AcDbLine
 10
60.60428055833547
 20
22.6344996501516
 11
64.60368508392264
 21
22.6344996501516
  0
LINE
  5
412
100
AcDbEntity
  8
0
  6
ByLayer
 62
  256
370
   -1
100
AcDbLine
 10
64.60368508392264
 20
22.6344996501516
 11
64.60368508392264
 21
1.751728712330127
  0
LINE
  5
413
100
AcDbEntity
  8
0
  6
ByLayer
 62
  256
370
   -1
100
AcDbLine
 10
60.60368508375894
 20
1.751728712330127
 11
64.60368508392264
 21
1.751728712330127
  0
MTEXT
  5
414
100
AcDbEntity
  8
0
  6
ByLayer
 62
  256
370
   -1
100
AcDbMText
 10
44.92371071483092
 20
14.82657958379281
 30
0
 40
0.5
 41
2.166666923810289
 71
    1
 72
    1
  1
Master
  7
standard
210
0
220
0
230
1
 50
90
 73
    2
 44
1
  0
MTEXT
  5
415
100
AcDbEntity
  8
0
  6
ByLayer
 62
  256
370
   -1
100
AcDbMText
 10
53.8351858768896
 20
14.87498443612209
 30
0
 40
0.5
 41
2.222222222222245
 71
    1
 72
    1
  1
Bottom
  7
standard
210
0
220
0
230
1
 50
90
 73
    2
 44
1
  0
MTEXT
  5
416
100
AcDbEntity
  8
0
  6
ByLayer
 62
  256
370
   -1
100
AcDbMText
 10
62.69198708462802
 20
13.362847644557
 30
0
 40
0.5
 41
3.263888888888911
 71
    1
 72
    1
  1
Top Front
  7
standard
210
0
220
0
230
1
 50
90
 73
    2
 44
1
  0
LINE
  5
417
100
AcDbEntity
  8
0
  6
ByLayer
 62
  256
370
   -1
100
AcDbLine
 10
65.71775546820729
 20
4.104467351145774
 11
65.84275546820729
 21
4.104467351145774
  0
LINE
  5
418
100
AcDbEntity
  8
0
  6
ByLayer
 62
  256
370
   -1
100
AcDbLine
 10
65.84276401392569
 20
4.104452319952573
 11
65.84276401392569
 21
1.604452319952573
  0
MTEXT
  5
419
100
AcDbEntity
  8
0
  6
ByLayer
 62
  256
370
   -1
100
AcDbMText
 10
66.10253556525765
 20
8.568670372633054
 30
0
 40
0.125
 41
1.225694508730373
 71
    1
 72
    1
  1
Embed & Glue\Pservos in KFM \Players 1 and 3
  7
standard
210
0
220
0
230
1
 50
0
 73
    2
 44
1
  0
LINE
  5
41A
100
AcDbEntity
  8
0
  6
ByLayer
 62
  256
370
   -1
100
AcDbLine
 10
65.76133285395028
 20
23.89770751712649
 11
65.83601625041231
 21
23.88425728694273
  0
LINE
  5
41B
100
AcDbEntity
  8
0
  6
ByLayer
 62
  256
370
   -1
100
AcDbLine
 10
65.83601625041231
 20
23.88425728694273
 11
65.91069758765454
 21
23.8700515897197
  0
LINE
  5
41C
100
AcDbEntity
  8
0
  6
ByLayer
 62
  256
370
   -1
100
AcDbLine
 10
65.91069758765454
 20
23.8700515897197
 11
65.98541236371682
 21
23.85508257902414
  0
LINE
  5
41D
100
AcDbEntity
  8
0
  6
ByLayer
 62
  256
370
   -1
100
AcDbLine
 10
65.98541236371682
 20
23.85508257902414
 11
66.06019607663907
 21
23.83934240842278
  0
LINE
  5
41E
100
AcDbEntity
  8
0
  6
ByLayer
 62
  256
370
   -1
100
AcDbLine
 10
66.06019607663907
 20
23.83934240842278
 11
66.13508422446125
 21
23.82282323148237
  0
LINE
  5
41F
100
AcDbEntity
  8
0
  6
ByLayer
 62
  256
370
   -1
100
AcDbLine
 10
66.13508422446125
 20
23.82282323148237
 11
66.21011230522328
 21
23.80551720176966
  0
LINE
  5
420
100
AcDbEntity
  8
0
  6
ByLayer
 62
  256
370
   -1
100
AcDbLine
 10
66.21011230522328
 20
23.80551720176966
 11
66.28531581696504
 21
23.78741647285137
  0
LINE
  5
421
100
AcDbEntity
  8
0
  6
ByLayer
 62
  256
370
   -1
100
AcDbLine
 10
66.28531581696504
 20
23.78741647285137
 11
66.36073025772646
 21
23.76851319829426
  0
LINE
  5
422
100
AcDbEntity
  8
0
  6
ByLayer
 62
  256
370
   -1
100
AcDbLine
 10
66.36073025772646
 20
23.76851319829426
 11
66.43639112554752
 21
23.74879953166506
  0
LINE
  5
423
100
AcDbEntity
  8
0
  6
ByLayer
 62
  256
370
   -1
100
AcDbLine
 10
66.43639112554752
 20
23.74879953166506
 11
66.51233391846804
 21
23.7282676265305
  0
LINE
  5
424
100
AcDbEntity
  8
0
  6
ByLayer
 62
  256
370
   -1
100
AcDbLine
 10
66.51233391846804
 20
23.7282676265305
 11
66.58859413452805
 21
23.70690963645735
  0
LINE
  5
425
100
AcDbEntity
  8
0
  6
ByLayer
 62
  256
370
   -1
100
AcDbLine
 10
66.58859413452805
 20
23.70690963645735
 11
66.66520727176737
 21
23.68471771501231
  0
LINE
  5
426
100
AcDbEntity
  8
0
  6
ByLayer
 62
  256
370
   -1
100
AcDbLine
 10
66.66520727176737
 20
23.68471771501231
 11
66.74220882822601
 21
23.66168401576216
  0
LINE
  5
427
100
AcDbEntity
  8
0
  6
ByLayer
 62
  256
370
   -1
100
AcDbLine
 10
66.74220882822601
 20
23.66168401576216
 11
66.81963430194381
 21
23.63780069227361
  0
LINE
  5
428
100
AcDbEntity
  8
0
  6
ByLayer
 62
  256
370
   -1
100
AcDbLine
 10
66.81963430194381
 20
23.63780069227361
 11
66.89751919096074
 21
23.61305989811342
  0
LINE
  5
429
100
AcDbEntity
  8
0
  6
ByLayer
 62
  256
370
   -1
100
AcDbLine
 10
66.89751919096074
 20
23.61305989811342
 11
66.97589899331672
 21
23.58745378684832
  0
LINE
  5
42A
100
AcDbEntity
  8
0
  6
ByLayer
 62
  256
370
   -1
100
AcDbLine
 10
66.97589899331672
 20
23.58745378684832
 11
67.05480920705165
 21
23.56097451204506
  0
LINE
  5
42B
100
AcDbEntity
  8
0
  6
ByLayer
 62
  256
370
   -1
100
AcDbLine
 10
67.05480920705165
 20
23.56097451204506
 11
67.13428533020544
 21
23.53361422727036
  0
LINE
  5
42C
100
AcDbEntity
  8
0
  6
ByLayer
 62
  256
370
   -1
100
AcDbLine
 10
67.13428533020544
 20
23.53361422727036
 11
67.21436286081803
 21
23.50536508609098
  0
LINE
  5
42D
100
AcDbEntity
  8
0
  6
ByLayer
 62
  256
370
   -1
100
AcDbLine
 10
67.21436286081803
 20
23.50536508609098
 11
67.29507729692938
 21
23.47621924207366
  0
LINE
  5
42E
100
AcDbEntity
  8
0
  6
ByLayer
 62
  256
370
   -1
100
AcDbLine
 10
67.29507729692938
 20
23.47621924207366
 11
67.37646413657933
 21
23.44616884878513
  0
LINE
  5
42F
100
AcDbEntity
  8
0
  6
ByLayer
 62
  256
370
   -1
100
AcDbLine
 10
67.37646413657933
 20
23.44616884878513
 11
67.45855887780786
 21
23.41520605979215
  0
LINE
  5
430
100
AcDbEntity
  8
0
  6
ByLayer
 62
  256
370
   -1
100
AcDbLine
 10
67.45855887780786
 20
23.41520605979215
 11
67.54139701865486
 21
23.38332302866142
  0
LINE
  5
431
100
AcDbEntity
  8
0
  6
ByLayer
 62
  256
370
   -1
100
AcDbLine
 10
67.54139701865486
 20
23.38332302866142
 11
67.62500509534289
 21
23.35051666358045
  0
LINE
  5
432
100
AcDbEntity
  8
0
  6
ByLayer
 62
  256
370
   -1
100
AcDbLine
 10
67.62500509534289
 20
23.35051666358045
 11
67.70930546296731
 21
23.31683914520264
  0
LINE
  5
433
100
AcDbEntity
  8
0
  6
ByLayer
 62
  256
370
   -1
100
AcDbLine
 10
67.79415326299298
 20
23.28237831383685
 11
67.96473132346799
 21
23.21203408769519
  0
LINE
  5
434
100
AcDbEntity
  8
0
  6
ByLayer
 62
  256
370
   -1
100
AcDbLine
 10
67.70930546296731
 20
23.31683914520264
 11
67.96473132346799
 21
23.21309824087145
  0
LINE
  5
435
100
AcDbEntity
  8
0
  6
ByLayer
 62
  256
370
   -1
100
AcDbLine
 10
67.87940251665773
 20
23.24722260411954
 11
67.96473132346799
 21
23.21153402954127
  0
LINE
  5
436
100
AcDbEntity
  8
0
  6
ByLayer
 62
  256
370
   -1
100
AcDbLine
 10
67.96473132346799
 20
1.604461610546814
 11
67.96473132346799
 21
23.21153402954126
  0
LINE
  5
437
100
AcDbEntity
  8
0
  6
ByLayer
 62
  256
370
   -1
100
AcDbLine
 10
65.84276401392569
 20
1.604461610546814
 11
67.96473132346799
 21
1.604461610546814
  0
LINE
  5
438
100
AcDbEntity
  8
0
  6
ByLayer
 62
  256
370
   -1
100
AcDbLine
 10
65.71773338390773
 20
23.90511945471776
 11
65.76133285395028
 21
23.89770751712649
  0
LINE
  5
439
100
AcDbEntity
  8
0
  6
ByLayer
 62
  256
370
   -1
100
AcDbLine
 10
65.71773338390773
 20
4.104467351145774
 11
65.71773338390773
 21
23.90649196843729
  0
MTEXT
  5
43A
100
AcDbEntity
  8
0
  6
ByLayer
 62
  256
370
   -1
100
AcDbMText
 10
66.63150142590288
 20
12.86542953029999
 30
0
 40
0.5
 41
2.875000257143598
 71
    1
 72
    1
  1
Aft step
  7
standard
210
0
220
0
230
1
 50
90
 73
    2
 44
1
  0
ARC
  5
43B
100
AcDbEntity
  8
0
  6
ByLayer
 62
  256
370
   -1
100
AcDbCircle
 10
4.799403776274717
 20
24.54944338289361
 40
0.75
100
AcDbArc
 50
47.1812213317239
 51
132.818778668277
  0
LINE
  5
43C
100
AcDbEntity
  8
0
  6
ByLayer
 62
  256
370
   -1
100
AcDbLine
 10
4.665930796120451
 20
24.72653498814263
 11
4.665930796120451
 21
20.16741232959431
  0
LINE
  5
43D
100
AcDbEntity
  8
0
  6
ByLayer
 62
  256
370
   -1
100
AcDbLine
 10
4.936126338227341
 20
24.72653498814263
 11
5.309165086845036
 21
25.09957373676033
  0
LINE
  5
43E
100
AcDbEntity
  8
0
  6
ByLayer
 62
  256
370
   -1
100
AcDbLine
 10
4.662681214322051
 20
24.72653498814263
 11
4.289642465704363
 21
25.09957373676033
  0
LINE
  5
43F
100
AcDbEntity
  8
0
  6
ByLayer
 62
  256
370
   -1
100
AcDbLine
 10
4.936126338227341
 20
24.72653498814263
 11
6.428085978724612
 21
24.72653498814263
  0
LINE
  5
440
100
AcDbEntity
  8
0
  6
ByLayer
 62
  256
370
   -1
100
AcDbLine
 10
0.5286259787246146
 20
24.72653498814263
 11
4.662681214322051
 21
24.72653498814263
  0
LINE
  5
441
100
AcDbEntity
  8
Hardware
  6
ByLayer
 62
  256
370
   -1
100
AcDbLine
 10
9.313550072802117
 20
14.48261295976313
 11
10.60311831591205
 21
18.27878146227311
  0
LINE
  5
442
100
AcDbEntity
  8
Hardware
  6
ByLayer
 62
  256
370
   -1
100
AcDbLine
 10
10.2293117179675
 20
13.31362367492747
 11
9.330297315763524
 21
14.39244095757225
  0
ARC
  5
443
100
AcDbEntity
  8
Hardware
  6
ByLayer
 62
  256
370
   -1
100
AcDbCircle
 10
9.402318060725776
 20
14.45245824504079
 40
0.09375
100
AcDbArc
 50
161.2372431525278
 51
219.8055710922652
  0
LINE
  5
444
100
AcDbEntity
  8
Hardware
  6
ByLayer
 62
  256
370
   -1
100
AcDbLine
 10
9.20787100564297
 20
14.46298565893086
 11
10.51435032798839
 21
18.30893617699545
  0
LINE
  5
445
100
AcDbEntity
  8
Hardware
  6
ByLayer
 62
  256
370
   -1
100
AcDbLine
 10
10.15729097300524
 20
13.25360638745893
 11
9.22461824860437
 21
14.37281365673998
  0
ARC
  5
446
100
AcDbEntity
  8
Hardware
  6
ByLayer
 62
  256
370
   -1
100
AcDbCircle
 10
9.296638993566628
 20
14.43283094420853
 40
0.09375
100
AcDbArc
 50
161.2372431525278
 51
219.8055710922648
  0
MTEXT
  5
447
100
AcDbEntity
  8
0
  6
ByLayer
 62
  256
370
   -1
100
AcDbMText
 10
27.85258703817852
 20
29.19953324935862
 30
0
 40
0.125
 41
1.545138939285929
 71
    1
 72
    1
  1
Foam wing ribs (8)
  7
standard
210
0
220
0
230
1
 50
0
 73
    2
 44
1
  0
MTEXT
  5
448
100
AcDbEntity
  8
0
  6
ByLayer
 62
  256
370
   -1
100
AcDbMText
 10
30.1392237163834
 20
29.91536722693018
 30
0
 40
0.125
 41
1.559027737388637
 71
    1
 72
    1
  1
F1 Wing Saddle (2)
  7
standard
210
0
220
0
230
1
 50
0
 73
    2
 44
1
  0
LINE
  5
449
100
AcDbEntity
  8
0
  6
ByLayer
 62
  256
370
   -1
100
AcDbLine
 10
41.31335804683671
 20
7.175874433910413
 11
41.31296677545305
 21
7.175874044124005
  0
LINE
  5
44A
100
AcDbEntity
  8
0
  6
ByLayer
 62
  256
370
   -1
100
AcDbLine
 10
41.31257550406939
 20
7.175873654337591
 11
41.31296677545305
 21
7.175874044124005
  0
LINE
  5
44B
100
AcDbEntity
  8
0
  6
ByLayer
 62
  256
370
   -1
100
AcDbLine
 10
41.61174864071753
 20
14.28976729074546
 11
41.36174864071753
 21
14.28976729074546
  0
LINE
  5
44C
100
AcDbEntity
  8
0
  6
ByLayer
 62
  256
370
   -1
100
AcDbLine
 10
41.36447347152719
 20
8.796350140079642
 11
41.29276496604175
 21
9.129697787201149
  0
LINE
  5
44D
100
AcDbEntity
  8
0
  6
ByLayer
 62
  256
370
   -1
100
AcDbLine
 10
41.29276496604175
 20
9.129697787201149
 11
41.24431327314618
 21
9.482426111480901
  0
LINE
  5
44E
100
AcDbEntity
  8
0
  6
ByLayer
 62
  256
370
   -1
100
AcDbLine
 10
41.24431327314618
 20
9.482426111480901
 11
41.20748998654555
 21
9.764091952847149
  0
LINE
  5
44F
100
AcDbEntity
  8
0
  6
ByLayer
 62
  256
370
   -1
100
AcDbLine
 10
41.20748998654555
 20
9.764091952847149
 11
41.18810155711645
 21
10.19211937606718
  0
LINE
  5
450
100
AcDbEntity
  8
0
  6
ByLayer
 62
  256
370
   -1
100
AcDbLine
 10
41.18810155711645
 20
10.19211937606718
 11
41.17047289317333
 21
10.5138424930292
  0
LINE
  5
451
100
AcDbEntity
  8
0
  6
ByLayer
 62
  256
370
   -1
100
AcDbLine
 10
41.17047289317333
 20
10.5138424930292
 11
41.15064064623731
 21
10.85760143992012
  0
LINE
  5
452
100
AcDbEntity
  8
0
  6
ByLayer
 62
  256
370
   -1
100
AcDbLine
 10
41.15064064623731
 20
10.85760143992012
 11
41.13193111593544
 21
11.24254983760727
  0
LINE
  5
453
100
AcDbEntity
  8
0
  6
ByLayer
 62
  256
370
   -1
100
AcDbLine
 10
41.13193111593544
 20
11.24254983760727
 11
41.12352692073567
 21
11.371103832176
  0
LINE
  5
454
100
AcDbEntity
  8
0
  6
ByLayer
 62
  256
370
   -1
100
AcDbLine
 10
41.50433477451283
 20
8.434197200947747
 11
41.36447347152719
 21
8.796350140079642
  0
LINE
  5
455
100
AcDbEntity
  8
0
  6
ByLayer
 62
  256
370
   -1
100
AcDbLine
 10
41.12352692073567
 20
11.371103832176
 11
41.12352692073567
 21
12.29279143548474
  0
LINE
  5
456
100
AcDbEntity
  8
0
  6
ByLayer
 62
  256
370
   -1
100
AcDbLine
 10
41.12352692073567
 20
12.29279143548474
 11
41.36174864071753
 21
12.29279143548474
  0
LINE
  5
457
100
AcDbEntity
  8
0
  6
ByLayer
 62
  256
370
   -1
100
AcDbLine
 10
41.36174864071753
 20
12.29279143548474
 11
41.36174864071753
 21
14.28976729074546
  0
LINE
  5
458
100
AcDbEntity
  8
0
  6
ByLayer
 62
  256
370
   -1
100
AcDbLine
 10
41.61174864071752
 20
14.28976729074546
 11
41.61174864071753
 21
16.29882747529797
  0
LINE
  5
459
100
AcDbEntity
  8
0
  6
ByLayer
 62
  256
370
   -1
100
AcDbLine
 10
41.3644734715273
 20
8.796350140079792
 11
41.29276496604187
 21
9.129697787201305
  0
LINE
  5
45A
100
AcDbEntity
  8
0
  6
ByLayer
 62
  256
370
   -1
100
AcDbLine
 10
41.50433477451294
 20
8.434197200947903
 11
41.3644734715273
 21
8.796350140079792
  0
ARC
  5
45B
100
AcDbEntity
  8
0
  6
ByLayer
 62
  256
370
   -1
100
AcDbCircle
 10
41.68370895826773
 20
8.482541021445844
 40
0.1878473438623312
100
AcDbArc
 50
190.6902363713739
 51
244.2211102102949
  0
MTEXT
  5
45C
100
AcDbEntity
  8
0
  6
ByLayer
 62
  256
370
   -1
100
AcDbMText
 10
1.452226401042585
 20
34.20341091219903
 30
0
 40
0.125
 41
3.729166781349601
 71
    1
 72
    1
  3
Wooden Parts List\P\P1/8" Lite Ply\P\PP1 Firewall\PP2 (Wing LE)\PP3 (Wing TE)\PP4 servo tray\PP5 Not used\PP6 LG/UC Plates (2)\PP7 LG braces (2)\PW1 Wing dowel brace\P\P1/8" birch ply\PW2 Spar Joiners (2)\P\P\PBalsa\P1/2 X 1/2 X 1/4" horn bases (3)\P
  1
\P\POdds\P3/16" dia. hardwood wing dowel\PPopsicle stick tail reinforcements (2)\P1/4 X 1/4 X 1/2" aileron servo mounts (4)\P1/8" bass fuse servo mounts (2)
  7
iso
210
0
220
0
230
1
 50
0
 73
    2
 44
1
  0
LINE
  5
45D
100
AcDbEntity
  8
0
  6
ByLayer
 62
  256
370
   -1
100
AcDbLine
 10
26.52960494590025
 20
22.91458177899635
 11
28.18960494590025
 21
22.91458177899635
  0
LINE
  5
45E
100
AcDbEntity
  8
0
  6
ByLayer
 62
  256
370
   -1
100
AcDbLine
 10
28.18960494590025
 20
22.91458177899635
 11
28.18960494590025
 21
23.91458177899635
  0
LINE
  5
45F
100
AcDbEntity
  8
0
  6
ByLayer
 62
  256
370
   -1
100
AcDbLine
 10
26.52960494590025
 20
23.91458177899635
 11
26.52960494590025
 21
22.91458177899635
  0
LINE
  5
460
100
AcDbEntity
  8
0
  6
ByLayer
 62
  256
370
   -1
100
AcDbLine
 10
27.35962739348327
 20
23.91459256982392
 11
27.35962739348327
 21
22.91459256982392
  0
MTEXT
  5
461
100
AcDbEntity
  8
0
  6
ByLayer
 62
  256
370
   -1
100
AcDbMText
 10
27.69332357756748
 20
23.47812768407855
 30
0
 40
0.125
 41
0.1805555555555555
 71
    1
 72
    1
  1
W1
  7
standard
210
0
220
0
230
1
 50
0
 73
    2
 44
1
  0
LINE
  5
462
100
AcDbEntity
  8
0
  6
ByLayer
 62
  256
370
   -1
100
AcDbLine
 10
26.52960494590025
 20
23.91458177899635
 11
28.18960494590025
 21
23.91458177899635
  0
LINE
  5
463
100
AcDbEntity
  8
Hardware
  6
ByLayer
 62
  256
370
   -1
100
AcDbLine
 10
34.86971776335218
 20
6.309256043111831
 11
34.86971776335219
 21
6.02430161824304
  0
ARC
  5
464
100
AcDbEntity
  8
Hardware
  6
ByLayer
 62
  256
370
   -1
100
AcDbCircle
 10
34.88864898855054
 20
5.311213595165662
 40
0.0553187500000021
100
AcDbArc
 50
205.2570706036011
 51
270.0000000000028
  0
LINE
  5
465
100
AcDbEntity
  8
Hardware
  6
ByLayer
 62
  256
370
   -1
100
AcDbLine
 10
34.88864898855054
 20
5.255894845165662
 11
34.92388403942338
 21
5.255894845165663
  0
ARC
  5
466
100
AcDbEntity
  8
Hardware
  6
ByLayer
 62
  256
370
   -1
100
AcDbCircle
 10
34.92388403942338
 20
5.311213595165664
 40
0.05531875
100
AcDbArc
 50
270.0000000000028
 51
2.849776994591311e-12
  0
CIRCLE
  5
467
100
AcDbEntity
  8
Hardware
  6
ByLayer
 62
  256
370
   -1
100
AcDbCircle
 10
34.91120682585223
 20
5.334811421692479
 40
0.027659375
  0
CIRCLE
  5
468
100
AcDbEntity
  8
Hardware
  6
ByLayer
 62
  256
370
   -1
100
AcDbCircle
 10
34.91120682585221
 20
5.500767671692479
 40
0.027659375
  0
ARC
  5
469
100
AcDbEntity
  8
Hardware
  6
ByLayer
 62
  256
370
   -1
100
AcDbCircle
 10
34.8973771383522
 20
5.889755522308
 40
0.0818256510711711
100
AcDbArc
 50
2.849776994591311e-12
 51
75.52248781409861
  0
LINE
  5
46A
100
AcDbEntity
  8
Hardware
  6
ByLayer
 62
  256
370
   -1
100
AcDbLine
 10
34.97920278942337
 20
5.889755522308005
 11
34.9792027894234
 21
5.336568022308005
  0
CIRCLE
  5
46B
100
AcDbEntity
  8
Hardware
  6
ByLayer
 62
  256
370
   -1
100
AcDbCircle
 10
34.91120682585221
 20
5.666723921692479
 40
0.027659375
  0
CIRCLE
  5
46C
100
AcDbEntity
  8
Hardware
  6
ByLayer
 62
  256
370
   -1
100
AcDbCircle
 10
34.9112068258522
 20
5.832680171692479
 40
0.027659375
  0
ARC
  5
46D
100
AcDbEntity
  8
Hardware
  6
ByLayer
 62
  256
370
   -1
100
AcDbCircle
 10
34.92503651335218
 20
6.024301618243043
 40
0.05531875
100
AcDbArc
 50
180.0000000000028
 51
270.0000000000028
  0
LINE
  5
46E
100
AcDbEntity
  8
Hardware
  6
ByLayer
 62
  256
370
   -1
100
AcDbLine
 10
34.83861857288642
 20
5.287610171531967
 11
34.3566249689309
 21
6.309256043111807
  0
LINE
  5
46F
100
AcDbEntity
  8
Hardware
  6
ByLayer
 62
  256
370
   -1
100
AcDbLine
 10
34.86971776335218
 20
6.309256043111831
 11
34.35662496893089
 21
6.309256043111805
  0
LINE
  5
470
100
AcDbEntity
  8
0
  6
ByLayer
 62
  256
370
   -1
100
AcDbLine
 10
10.16319769309344
 20
0.4951301440225009
 11
35.97401341415324
 21
5.451140951406543
  0
MTEXT
  5
471
100
AcDbEntity
  8
0
  6
ByLayer
 62
  256
370
   -1
100
AcDbMText
 10
35.10471389752649
 20
5.767250731689579
 30
0
 40
0.0625
 41
0.6909722222222281
 71
    1
 72
    1
  1
Plastic tail skid\Pfrom old control\Phorn
  7
standard
210
0
220
0
230
1
 50
0
 73
    2
 44
1
  0
LINE
  5
472
100
AcDbEntity
  8
0
  6
ByLayer
 62
  256
370
   -1
100
AcDbLine
 10
4.674021005709315
 20
20.14436704158499
 11
4.627016971441777
 21
20.25350169047145
  0
LINE
  5
473
100
AcDbEntity
  8
0
  6
ByLayer
 62
  256
370
   -1
100
AcDbLine
 10
4.627016971441777
 20
20.25350169047145
 11
4.580918135532982
 21
20.35790883714595
  0
LINE
  5
474
100
AcDbEntity
  8
0
  6
ByLayer
 62
  256
370
   -1
100
AcDbLine
 10
4.580918135532982
 20
20.35790883714595
 11
4.535637576714303
 21
20.457764380122
  0
LINE
  5
475
100
AcDbEntity
  8
0
  6
ByLayer
 62
  256
370
   -1
100
AcDbLine
 10
4.535637576714303
 20
20.457764380122
 11
4.491088373717116
 21
20.55324421791308
  0
LINE
  5
476
100
AcDbEntity
  8
0
  6
ByLayer
 62
  256
370
   -1
100
AcDbLine
 10
4.491088373717116
 20
20.55324421791308
 11
4.447183605272795
 21
20.6445242490327
  0
LINE
  5
477
100
AcDbEntity
  8
0
  6
ByLayer
 62
  256
370
   -1
100
AcDbLine
 10
4.447183605272795
 20
20.6445242490327
 11
4.403836350112716
 21
20.73178037199435
  0
LINE
  5
478
100
AcDbEntity
  8
0
  6
ByLayer
 62
  256
370
   -1
100
AcDbLine
 10
4.403836350112716
 20
20.73178037199435
 11
4.360959686968251
 21
20.81518848531152
  0
LINE
  5
479
100
AcDbEntity
  8
0
  6
ByLayer
 62
  256
370
   -1
100
AcDbLine
 10
4.360959686968251
 20
20.81518848531152
 11
4.31846669457078
 21
20.89492448749772
  0
LINE
  5
47A
100
AcDbEntity
  8
0
  6
ByLayer
 62
  256
370
   -1
100
AcDbLine
 10
4.31846669457078
 20
20.89492448749772
 11
4.276270451651674
 21
20.97116427706644
  0
LINE
  5
47B
100
AcDbEntity
  8
0
  6
ByLayer
 62
  256
370
   -1
100
AcDbLine
 10
4.276270451651674
 20
20.97116427706644
 11
4.234284036942308
 21
21.04408375253116
  0
LINE
  5
47C
100
AcDbEntity
  8
0
  6
ByLayer
 62
  256
370
   -1
100
AcDbLine
 10
4.234284036942308
 20
21.04408375253116
 11
4.19242052917406
 21
21.1138588124054
  0
LINE
  5
47D
100
AcDbEntity
  8
0
  6
ByLayer
 62
  256
370
   -1
100
AcDbLine
 10
4.19242052917406
 20
21.1138588124054
 11
4.150593007078302
 21
21.18066535520264
  0
LINE
  5
47E
100
AcDbEntity
  8
0
  6
ByLayer
 62
  256
370
   -1
100
AcDbLine
 10
4.150593007078302
 20
21.18066535520264
 11
4.108714549386411
 21
21.24467927943639
  0
LINE
  5
47F
100
AcDbEntity
  8
0
  6
ByLayer
 62
  256
370
   -1
100
AcDbLine
 10
4.108714549386411
 20
21.24467927943639
 11
4.066698234829761
 21
21.30607648362014
  0
LINE
  5
480
100
AcDbEntity
  8
0
  6
ByLayer
 62
  256
370
   -1
100
AcDbLine
 10
4.066698234829761
 20
21.30607648362014
 11
4.024457142139726
 21
21.36503286626737
  0
LINE
  5
481
100
AcDbEntity
  8
0
  6
ByLayer
 62
  256
370
   -1
100
AcDbLine
 10
4.024457142139726
 20
21.36503286626737
 11
3.981904350047682
 21
21.4217243258916
  0
LINE
  5
482
100
AcDbEntity
  8
0
  6
ByLayer
 62
  256
370
   -1
100
AcDbLine
 10
3.981904350047682
 20
21.4217243258916
 11
3.938952937285006
 21
21.47632676100631
  0
LINE
  5
483
100
AcDbEntity
  8
0
  6
ByLayer
 62
  256
370
   -1
100
AcDbLine
 10
3.938952937285006
 20
21.47632676100631
 11
3.895515982583068
 21
21.52901607012501
  0
LINE
  5
484
100
AcDbEntity
  8
0
  6
ByLayer
 62
  256
370
   -1
100
AcDbLine
 10
3.895515982583068
 20
21.52901607012501
 11
3.851506564673248
 21
21.57996815176118
  0
LINE
  5
485
100
AcDbEntity
  8
0
  6
ByLayer
 62
  256
370
   -1
100
AcDbLine
 10
3.851506564673248
 20
21.57996815176118
 11
3.806837762286918
 21
21.62935890442832
  0
LINE
  5
486
100
AcDbEntity
  8
0
  6
ByLayer
 62
  256
370
   -1
100
AcDbLine
 10
3.806837762286918
 20
21.62935890442832
 11
3.761422654155453
 21
21.67736422663993
  0
LINE
  5
487
100
AcDbEntity
  8
0
  6
ByLayer
 62
  256
370
   -1
100
AcDbLine
 10
3.761422654155453
 20
21.67736422663993
 11
3.71517431901023
 21
21.72416001690952
  0
LINE
  5
488
100
AcDbEntity
  8
0
  6
ByLayer
 62
  256
370
   -1
100
AcDbLine
 10
3.71517431901023
 20
21.72416001690952
 11
3.668005835582622
 21
21.76992217375056
  0
LINE
  5
489
100
AcDbEntity
  8
0
  6
ByLayer
 62
  256
370
   -1
100
AcDbLine
 10
3.668005835582622
 20
21.76992217375056
 11
3.619830282604005
 21
21.81482659567656
  0
LINE
  5
48A
100
AcDbEntity
  8
0
  6
ByLayer
 62
  256
370
   -1
100
AcDbLine
 10
3.619830282604005
 20
21.81482659567656
 11
3.57056075714686
 21
21.85904916265267
  0
LINE
  5
48B
100
AcDbEntity
  8
0
  6
ByLayer
 62
  256
370
   -1
100
AcDbLine
 10
3.57056075714686
 20
21.85904916265267
 11
3.520150578331121
 21
21.90272507813326
  0
LINE
  5
48C
100
AcDbEntity
  8
0
  6
ByLayer
 62
  256
370
   -1
100
AcDbLine
 10
3.520150578331121
 20
21.90272507813326
 11
3.468678573471305
 21
21.94586261927845
  0
LINE
  5
48D
100
AcDbEntity
  8
0
  6
ByLayer
 62
  256
370
   -1
100
AcDbLine
 10
3.468678573471305
 20
21.94586261927845
 11
3.416247981895222
 21
21.9884453754071
  0
LINE
  5
48E
100
AcDbEntity
  8
0
  6
ByLayer
 62
  256
370
   -1
100
AcDbLine
 10
3.416247981895222
 20
21.9884453754071
 11
3.362962042930683
 21
22.03045693583807
  0
LINE
  5
48F
100
AcDbEntity
  8
0
  6
ByLayer
 62
  256
370
   -1
100
AcDbLine
 10
3.362962042930683
 20
22.03045693583807
 11
3.3089239959055
 21
22.07188088989023
  0
LINE
  5
490
100
AcDbEntity
  8
0
  6
ByLayer
 62
  256
370
   -1
100
AcDbLine
 10
3.3089239959055
 20
22.07188088989023
 11
3.254237080147483
 21
22.11270082688243
  0
LINE
  5
491
100
AcDbEntity
  8
0
  6
ByLayer
 62
  256
370
   -1
100
AcDbLine
 10
3.254237080147483
 20
22.11270082688243
 11
3.199004534984446
 21
22.15290033613356
  0
LINE
  5
492
100
AcDbEntity
  8
0
  6
ByLayer
 62
  256
370
   -1
100
AcDbLine
 10
3.199004534984446
 20
22.15290033613356
 11
3.143329599744198
 21
22.19246300696246
  0
LINE
  5
493
100
AcDbEntity
  8
0
  6
ByLayer
 62
  256
370
   -1
100
AcDbLine
 10
3.143329599744198
 20
22.19246300696246
 11
3.087315513754552
 21
22.23137242868801
  0
LINE
  5
494
100
AcDbEntity
  8
0
  6
ByLayer
 62
  256
370
   -1
100
AcDbLine
 10
3.087315513754552
 20
22.23137242868801
 11
3.031065516343316
 21
22.26961219062906
  0
LINE
  5
495
100
AcDbEntity
  8
0
  6
ByLayer
 62
  256
370
   -1
100
AcDbLine
 10
3.031065516343316
 20
22.26961219062906
 11
2.974682846838305
 21
22.30716588210448
  0
LINE
  5
496
100
AcDbEntity
  8
0
  6
ByLayer
 62
  256
370
   -1
100
AcDbLine
 10
2.974682846838305
 20
22.30716588210448
 11
2.91827074456733
 21
22.34401709243315
  0
LINE
  5
497
100
AcDbEntity
  8
0
  6
ByLayer
 62
  256
370
   -1
100
AcDbLine
 10
2.91827074456733
 20
22.34401709243315
 11
2.861932448858201
 21
22.38014941093391
  0
LINE
  5
498
100
AcDbEntity
  8
0
  6
ByLayer
 62
  256
370
   -1
100
AcDbLine
 10
2.861932448858201
 20
22.38014941093391
 11
2.80577119903873
 21
22.41554642692564
  0
LINE
  5
499
100
AcDbEntity
  8
0
  6
ByLayer
 62
  256
370
   -1
100
AcDbLine
 10
2.80577119903873
 20
22.41554642692564
 11
2.749890234436728
 21
22.4501917297272
  0
LINE
  5
49A
100
AcDbEntity
  8
0
  6
ByLayer
 62
  256
370
   -1
100
AcDbLine
 10
2.749890234436728
 20
22.4501917297272
 11
2.694392794380007
 21
22.48406890865746
  0
LINE
  5
49B
100
AcDbEntity
  8
0
  6
ByLayer
 62
  256
370
   -1
100
AcDbLine
 10
2.694392794380007
 20
22.48406890865746
 11
2.639382118196378
 21
22.51716155303527
  0
LINE
  5
49C
100
AcDbEntity
  8
0
  6
ByLayer
 62
  256
370
   -1
100
AcDbLine
 10
2.639382118196378
 20
22.51716155303527
 11
2.584961445213652
 21
22.5494532521795
  0
LINE
  5
49D
100
AcDbEntity
  8
0
  6
ByLayer
 62
  256
370
   -1
100
AcDbLine
 10
2.584961445213652
 20
22.5494532521795
 11
2.531234014759641
 21
22.58092759540902
  0
LINE
  5
49E
100
AcDbEntity
  8
0
  6
ByLayer
 62
  256
370
   -1
100
AcDbLine
 10
2.531234014759641
 20
22.58092759540902
 11
2.478303066162156
 21
22.61156817204269
  0
LINE
  5
49F
100
AcDbEntity
  8
0
  6
ByLayer
 62
  256
370
   -1
100
AcDbLine
 10
2.478303066162156
 20
22.61156817204269
 11
2.426271838749008
 21
22.64135857139937
  0
LINE
  5
4A0
100
AcDbEntity
  8
0
  6
ByLayer
 62
  256
370
   -1
100
AcDbLine
 10
2.426271838749008
 20
22.64135857139937
 11
2.37524357184801
 21
22.67028238279794
  0
LINE
  5
4A1
100
AcDbEntity
  8
0
  6
ByLayer
 62
  256
370
   -1
100
AcDbLine
 10
2.37524357184801
 20
22.67028238279794
 11
2.325321504786971
 21
22.69832319555724
  0
LINE
  5
4A2
100
AcDbEntity
  8
0
  6
ByLayer
 62
  256
370
   -1
100
AcDbLine
 10
2.325321504786971
 20
22.69832319555724
 11
2.276608876893704
 21
22.72546459899615
  0
LINE
  5
4A3
100
AcDbEntity
  8
0
  6
ByLayer
 62
  256
370
   -1
100
AcDbLine
 10
2.276608876893704
 20
22.72546459899615
 11
2.229208807692376
 21
22.75169024133141
  0
LINE
  5
4A4
100
AcDbEntity
  8
0
  6
ByLayer
 62
  256
370
   -1
100
AcDbLine
 10
2.229208807692376
 20
22.75169024133141
 11
2.183183803272239
 21
22.7770037371611
  0
LINE
  5
4A5
100
AcDbEntity
  8
0
  6
ByLayer
 62
  256
370
   -1
100
AcDbLine
 10
2.183183803272239
 20
22.7770037371611
 11
2.138496812895353
 21
22.80145764522148
  0
LINE
  5
4A6
100
AcDbEntity
  8
0
  6
ByLayer
 62
  256
370
   -1
100
AcDbLine
 10
2.138496812895353
 20
22.80145764522148
 11
2.095095810368425
 21
22.82511188648389
  0
LINE
  5
4A7
100
AcDbEntity
  8
0
  6
ByLayer
 62
  256
370
   -1
100
AcDbLine
 10
2.095095810368425
 20
22.82511188648389
 11
2.052928769498163
 21
22.84802638191963
  0
LINE
  5
4A8
100
AcDbEntity
  8
0
  6
ByLayer
 62
  256
370
   -1
100
AcDbLine
 10
2.052928769498163
 20
22.84802638191963
 11
2.011943664091274
 21
22.87026105250002
  0
LINE
  5
4A9
100
AcDbEntity
  8
0
  6
ByLayer
 62
  256
370
   -1
100
AcDbLine
 10
2.011943664091274
 20
22.87026105250002
 11
1.972088467954465
 21
22.89187581919634
  0
LINE
  5
4AA
100
AcDbEntity
  8
0
  6
ByLayer
 62
  256
370
   -1
100
AcDbLine
 10
1.972088467954465
 20
22.89187581919634
 11
1.933311154894446
 21
22.91293060297992
  0
LINE
  5
4AB
100
AcDbEntity
  8
0
  6
ByLayer
 62
  256
370
   -1
100
AcDbLine
 10
1.933311154894446
 20
22.91293060297992
 11
1.895559698717921
 21
22.93348532482205
  0
LINE
  5
4AC
100
AcDbEntity
  8
0
  6
ByLayer
 62
  256
370
   -1
100
AcDbLine
 10
1.895559698717921
 20
22.93348532482205
 11
1.858782073231599
 21
22.95359990569406
  0
LINE
  5
4AD
100
AcDbEntity
  8
0
  6
ByLayer
 62
  256
370
   -1
100
AcDbLine
 10
1.858782073231599
 20
22.95359990569406
 11
1.822926252242187
 21
22.97333426656724
  0
LINE
  5
4AE
100
AcDbEntity
  8
0
  6
ByLayer
 62
  256
370
   -1
100
AcDbLine
 10
1.822926252242187
 20
22.97333426656724
 11
1.787940209556393
 21
22.99274832841289
  0
LINE
  5
4AF
100
AcDbEntity
  8
0
  6
ByLayer
 62
  256
370
   -1
100
AcDbLine
 10
1.787940209556393
 20
22.99274832841289
 11
1.753771918980924
 21
23.01190201220234
  0
LINE
  5
4B0
100
AcDbEntity
  8
0
  6
ByLayer
 62
  256
370
   -1
100
AcDbLine
 10
1.753771918980924
 20
23.01190201220234
 11
1.720369354322488
 21
23.03085523890688
  0
LINE
  5
4B1
100
AcDbEntity
  8
0
  6
ByLayer
 62
  256
370
   -1
100
AcDbLine
 10
1.720369354322488
 20
23.03085523890688
 11
1.687680489387792
 21
23.04966792949782
  0
LINE
  5
4B2
100
AcDbEntity
  8
0
  6
ByLayer
 62
  256
370
   -1
100
AcDbLine
 10
1.687680489387792
 20
23.04966792949782
 11
1.655653297983543
 21
23.06840000494646
  0
LINE
  5
4B3
100
AcDbEntity
  8
0
  6
ByLayer
 62
  256
370
   -1
100
AcDbLine
 10
1.655653297983543
 20
23.06840000494646
 11
1.624235753916448
 21
23.08711138622412
  0
LINE
  5
4B4
100
AcDbEntity
  8
0
  6
ByLayer
 62
  256
370
   -1
100
AcDbLine
 10
1.624235753916448
 20
23.08711138622412
 11
1.593375830993217
 21
23.10586199430211
  0
LINE
  5
4B5
100
AcDbEntity
  8
0
  6
ByLayer
 62
  256
370
   -1
100
AcDbLine
 10
1.593375830993217
 20
23.10586199430211
 11
1.563021503020554
 21
23.12471175015173
  0
LINE
  5
4B6
100
AcDbEntity
  8
0
  6
ByLayer
 62
  256
370
   -1
100
AcDbLine
 10
1.563021503020554
 20
23.12471175015173
 11
1.533120743805169
 21
23.14372057474428
  0
LINE
  5
4B7
100
AcDbEntity
  8
0
  6
ByLayer
 62
  256
370
   -1
100
AcDbLine
 10
1.533120743805169
 20
23.14372057474428
 11
1.503621527153767
 21
23.16294838905107
  0
LINE
  5
4B8
100
AcDbEntity
  8
0
  6
ByLayer
 62
  256
370
   -1
100
AcDbLine
 10
1.503621527153767
 20
23.16294838905107
 11
1.474471826873058
 21
23.18245511404341
  0
LINE
  5
4B9
100
AcDbEntity
  8
0
  6
ByLayer
 62
  256
370
   -1
100
AcDbLine
 10
1.474471826873058
 20
23.18245511404341
 11
1.445619616769748
 21
23.20230067069262
  0
LINE
  5
4BA
100
AcDbEntity
  8
0
  6
ByLayer
 62
  256
370
   -1
100
AcDbLine
 10
1.445619616769748
 20
23.20230067069262
 11
1.417012870650545
 21
23.22254497996998
  0
LINE
  5
4BB
100
AcDbEntity
  8
0
  6
ByLayer
 62
  256
370
   -1
100
AcDbLine
 10
1.417012870650545
 20
23.22254497996998
 11
1.388599562322156
 21
23.24324796284682
  0
LINE
  5
4BC
100
AcDbEntity
  8
0
  6
ByLayer
 62
  256
370
   -1
100
AcDbLine
 10
1.388599562322156
 20
23.24324796284682
 11
1.360327861966885
 21
23.26446934640153
  0
LINE
  5
4BD
100
AcDbEntity
  8
0
  6
ByLayer
 62
  256
370
   -1
100
AcDbLine
 10
1.360327861966885
 20
23.26446934640153
 11
1.332169701214335
 21
23.28624539666982
  0
LINE
  5
4BE
100
AcDbEntity
  8
0
  6
ByLayer
 62
  256
370
   -1
100
AcDbLine
 10
1.332169701214335
 20
23.28624539666982
 11
1.304143159959517
 21
23.30856681485253
  0
LINE
  5
4BF
100
AcDbEntity
  8
0
  6
ByLayer
 62
  256
370
   -1
100
AcDbLine
 10
1.304143159959517
 20
23.30856681485253
 11
1.276271620238575
 21
23.33141906704178
  0
LINE
  5
4C0
100
AcDbEntity
  8
0
  6
ByLayer
 62
  256
370
   -1
100
AcDbLine
 10
1.276271620238575
 20
23.33141906704178
 11
1.248578464087652
 21
23.35478761932968
  0
LINE
  5
4C1
100
AcDbEntity
  8
0
  6
ByLayer
 62
  256
370
   -1
100
AcDbLine
 10
1.248578464087652
 20
23.35478761932968
 11
1.221087073542891
 21
23.37865793780835
  0
LINE
  5
4C2
100
AcDbEntity
  8
0
  6
ByLayer
 62
  256
370
   -1
100
AcDbLine
 10
1.221087073542891
 20
23.37865793780835
 11
1.193820830640438
 21
23.40301548856992
  0
LINE
  5
4C3
100
AcDbEntity
  8
0
  6
ByLayer
 62
  256
370
   -1
100
AcDbLine
 10
1.193820830640438
 20
23.40301548856992
 11
1.166803117416436
 21
23.42784573770652
  0
LINE
  5
4C4
100
AcDbEntity
  8
0
  6
ByLayer
 62
  256
370
   -1
100
AcDbLine
 10
1.166803117416436
 20
23.42784573770652
 11
1.140057315907028
 21
23.45313415131025
  0
LINE
  5
4C5
100
AcDbEntity
  8
0
  6
ByLayer
 62
  256
370
   -1
100
AcDbLine
 10
1.140057315907028
 20
23.45313415131025
 11
1.113606808148358
 21
23.47886619547325
  0
LINE
  5
4C6
100
AcDbEntity
  8
0
  6
ByLayer
 62
  256
370
   -1
100
AcDbLine
 10
1.113606808148358
 20
23.47886619547325
 11
1.08747497617657
 21
23.50502733628763
  0
LINE
  5
4C7
100
AcDbEntity
  8
0
  6
ByLayer
 62
  256
370
   -1
100
AcDbLine
 10
1.08747497617657
 20
23.50502733628763
 11
1.061685202027809
 21
23.53160303984552
  0
LINE
  5
4C8
100
AcDbEntity
  8
0
  6
ByLayer
 62
  256
370
   -1
100
AcDbLine
 10
1.061685202027809
 20
23.53160303984552
 11
1.036260867738216
 21
23.55857877223903
  0
LINE
  5
4C9
100
AcDbEntity
  8
0
  6
ByLayer
 62
  256
370
   -1
100
AcDbLine
 10
1.036260867738216
 20
23.55857877223903
 11
1.011225355343937
 21
23.5859399995603
  0
LINE
  5
4CA
100
AcDbEntity
  8
0
  6
ByLayer
 62
  256
370
   -1
100
AcDbLine
 10
1.011225355343937
 20
23.5859399995603
 11
0.9866020468811156
 21
23.61367218790144
  0
LINE
  5
4CB
100
AcDbEntity
  8
0
  6
ByLayer
 62
  256
370
   -1
100
AcDbLine
 10
0.9866020468811156
 20
23.61367218790144
 11
0.962414324385895
 21
23.64176080335458
  0
LINE
  5
4CC
100
AcDbEntity
  8
0
  6
ByLayer
 62
  256
370
   -1
100
AcDbLine
 10
0.962414324385895
 20
23.64176080335458
 11
0.9386855698944192
 21
23.67019131201183
  0
LINE
  5
4CD
100
AcDbEntity
  8
0
  6
ByLayer
 62
  256
370
   -1
100
AcDbLine
 10
0.9386855698944192
 20
23.67019131201183
 11
0.9154391654428315
 21
23.69894917996532
  0
LINE
  5
4CE
100
AcDbEntity
  8
0
  6
ByLayer
 62
  256
370
   -1
100
AcDbLine
 10
0.9154391654428315
 20
23.69894917996532
 11
0.8926984930672764
 21
23.72801987330716
  0
LINE
  5
4CF
100
AcDbEntity
  8
0
  6
ByLayer
 62
  256
370
   -1
100
AcDbLine
 10
0.8926984930672764
 20
23.72801987330716
 11
0.8704869348038973
 21
23.75738885812949
  0
LINE
  5
4D0
100
AcDbEntity
  8
0
  6
ByLayer
 62
  256
370
   -1
100
AcDbLine
 10
0.8704869348038973
 20
23.75738885812949
 11
0.8488278726888381
 21
23.78704160052442
  0
LINE
  5
4D1
100
AcDbEntity
  8
0
  6
ByLayer
 62
  256
370
   -1
100
AcDbLine
 10
0.8488278726888381
 20
23.78704160052442
 11
0.8277446887582426
 21
23.81696356658408
  0
LINE
  5
4D2
100
AcDbEntity
  8
0
  6
ByLayer
 62
  256
370
   -1
100
AcDbLine
 10
0.8277446887582426
 20
23.81696356658408
 11
0.8072607650482544
 21
23.84714022240058
  0
LINE
  5
4D3
100
AcDbEntity
  8
0
  6
ByLayer
 62
  256
370
   -1
100
AcDbLine
 10
0.8072607650482544
 20
23.84714022240058
 11
0.7873994835950174
 21
23.87755703406604
  0
LINE
  5
4D4
100
AcDbEntity
  8
0
  6
ByLayer
 62
  256
370
   -1
100
AcDbLine
 10
0.7873994835950174
 20
23.87755703406604
 11
0.7681842264346755
 21
23.9081994676726
  0
LINE
  5
4D5
100
AcDbEntity
  8
0
  6
ByLayer
 62
  256
370
   -1
100
AcDbLine
 10
0.7681842264346755
 20
23.9081994676726
 11
0.7496382791709923
 21
23.93905307233967
  0
LINE
  5
4D6
100
AcDbEntity
  8
0
  6
ByLayer
 62
  256
370
   -1
100
AcDbLine
 10
0.7496382791709923
 20
23.93905307233967
 11
0.7317791414649344
 21
23.97010837882507
  0
LINE
  5
4D7
100
AcDbEntity
  8
0
  6
ByLayer
 62
  256
370
   -1
100
AcDbLine
 10
0.7317791414649344
 20
23.97010837882507
 11
0.7146153447661329
 21
24.00136363942605
  0
LINE
  5
4D8
100
AcDbEntity
  8
0
  6
ByLayer
 62
  256
370
   -1
100
AcDbLine
 10
0.7146153447661329
 20
24.00136363942605
 11
0.6981546490651782
 21
24.03281777065836
  0
LINE
  5
4D9
100
AcDbEntity
  8
0
  6
ByLayer
 62
  256
370
   -1
100
AcDbLine
 10
0.6981546490651782
 20
24.03281777065836
 11
0.6824048143526618
 21
24.0644696890377
  0
LINE
  5
4DA
100
AcDbEntity
  8
0
  6
ByLayer
 62
  256
370
   -1
100
AcDbLine
 10
0.6824048143526618
 20
24.0644696890377
 11
0.6673736006191748
 21
24.09631831107982
  0
LINE
  5
4DB
100
AcDbEntity
  8
0
  6
ByLayer
 62
  256
370
   -1
100
AcDbLine
 10
0.6673736006191748
 20
24.09631831107982
 11
0.653068767855308
 21
24.12836255330044
  0
LINE
  5
4DC
100
AcDbEntity
  8
0
  6
ByLayer
 62
  256
370
   -1
100
AcDbLine
 10
0.653068767855308
 20
24.12836255330044
 11
0.6394980760516525
 21
24.16060133221528
  0
LINE
  5
4DD
100
AcDbEntity
  8
0
  6
ByLayer
 62
  256
370
   -1
100
AcDbLine
 10
0.6394980760516525
 20
24.16060133221528
 11
0.6266692851987997
 21
24.19303356434006
  0
LINE
  5
4DE
100
AcDbEntity
  8
0
  6
ByLayer
 62
  256
370
   -1
100
AcDbLine
 10
0.6266692851987997
 20
24.19303356434006
 11
0.6145901552873406
 21
24.22565816619052
  0
LINE
  5
4DF
100
AcDbEntity
  8
0
  6
ByLayer
 62
  256
370
   -1
100
AcDbLine
 10
0.6145901552873406
 20
24.22565816619052
 11
0.6032684463078659
 21
24.25847405428237
  0
LINE
  5
4E0
100
AcDbEntity
  8
0
  6
ByLayer
 62
  256
370
   -1
100
AcDbLine
 10
0.6032684463078659
 20
24.25847405428237
 11
0.592711918250967
 21
24.29148014513135
  0
LINE
  5
4E1
100
AcDbEntity
  8
0
  6
ByLayer
 62
  256
370
   -1
100
AcDbLine
 10
0.592711918250967
 20
24.29148014513135
 11
0.5829283311072351
 21
24.32467535525318
  0
LINE
  5
4E2
100
AcDbEntity
  8
0
  6
ByLayer
 62
  256
370
   -1
100
AcDbLine
 10
0.5829283311072351
 20
24.32467535525318
 11
0.5739254448672608
 21
24.35805860116359
  0
LINE
  5
4E3
100
AcDbEntity
  8
0
  6
ByLayer
 62
  256
370
   -1
100
AcDbLine
 10
0.5739254448672608
 20
24.35805860116359
 11
0.5657110195216353
 21
24.39162879937829
  0
LINE
  5
4E4
100
AcDbEntity
  8
0
  6
ByLayer
 62
  256
370
   -1
100
AcDbLine
 10
0.5657110195216353
 20
24.39162879937829
 11
0.5582928150609502
 21
24.42538486641302
  0
LINE
  5
4E5
100
AcDbEntity
  8
0
  6
ByLayer
 62
  256
370
   -1
100
AcDbLine
 10
0.5582928150609502
 20
24.42538486641302
 11
0.551678591475796
 21
24.45932571878351
  0
LINE
  5
4E6
100
AcDbEntity
  8
0
  6
ByLayer
 62
  256
370
   -1
100
AcDbLine
 10
0.551678591475796
 20
24.45932571878351
 11
0.5458761087567641
 21
24.49345027300548
  0
LINE
  5
4E7
100
AcDbEntity
  8
0
  6
ByLayer
 62
  256
370
   -1
100
AcDbLine
 10
0.5458761087567641
 20
24.49345027300548
 11
0.5408931268944452
 21
24.52775744559464
  0
LINE
  5
4E8
100
AcDbEntity
  8
0
  6
ByLayer
 62
  256
370
   -1
100
AcDbLine
 10
0.5408931268944452
 20
24.52775744559464
 11
0.5367374058794306
 21
24.56224615306673
  0
LINE
  5
4E9
100
AcDbEntity
  8
0
  6
ByLayer
 62
  256
370
   -1
100
AcDbLine
 10
0.5367374058794306
 20
24.56224615306673
 11
0.5334167057023116
 21
24.59691531193749
  0
LINE
  5
4EA
100
AcDbEntity
  8
0
  6
ByLayer
 62
  256
370
   -1
100
AcDbLine
 10
0.5334167057023116
 20
24.59691531193749
 11
0.5309387863536789
 21
24.63176383872261
  0
LINE
  5
4EB
100
AcDbEntity
  8
0
  6
ByLayer
 62
  256
370
   -1
100
AcDbLine
 10
0.5309387863536789
 20
24.63176383872261
 11
0.5293114078241239
 21
24.66679064993785
  0
LINE
  5
4EC
100
AcDbEntity
  8
0
  6
ByLayer
 62
  256
370
   -1
100
AcDbLine
 10
0.5293114078241239
 20
24.66679064993785
 11
0.5285423301042373
 21
24.70199466209892
  0
LINE
  5
4ED
100
AcDbEntity
  8
0
  6
ByLayer
 62
  256
370
   -1
100
AcDbLine
 10
0.5285423301042373
 20
24.70199466209892
 11
0.5286393131846105
 21
24.73737479172155
  0
LINE
  5
4EE
100
AcDbEntity
  8
0
  6
ByLayer
 62
  256
370
   -1
100
AcDbLine
 10
0.5286393131846105
 20
24.73737479172155
 11
0.5296100044630994
 21
24.77292973247404
  0
LINE
  5
4EF
100
AcDbEntity
  8
0
  6
ByLayer
 62
  256
370
   -1
100
AcDbLine
 10
0.5296100044630994
 20
24.77292973247404
 11
0.5314580763636385
 21
24.80865031061973
  0
LINE
  5
4F0
100
AcDbEntity
  8
0
  6
ByLayer
 62
  256
370
   -1
100
AcDbLine
 10
0.5314580763636385
 20
24.80865031061973
 11
0.5341822589394611
 21
24.84451757031197
  0
LINE
  5
4F1
100
AcDbEntity
  8
0
  6
ByLayer
 62
  256
370
   -1
100
AcDbLine
 10
0.5341822589394611
 20
24.84451757031197
 11
0.5377809732893355
 21
24.88051194421084
  0
LINE
  5
4F2
100
AcDbEntity
  8
0
  6
ByLayer
 62
  256
370
   -1
100
AcDbLine
 10
0.5377809732893355
 20
24.88051194421084
 11
0.5422526405120295
 21
24.91661386497639
  0
LINE
  5
4F3
100
AcDbEntity
  8
0
  6
ByLayer
 62
  256
370
   -1
100
AcDbLine
 10
0.5422526405120295
 20
24.91661386497639
 11
0.5475956817063113
 21
24.95280376526871
  0
LINE
  5
4F4
100
AcDbEntity
  8
0
  6
ByLayer
 62
  256
370
   -1
100
AcDbLine
 10
0.5475956817063113
 20
24.95280376526871
 11
0.5538085179709487
 21
24.98906207774785
  0
LINE
  5
4F5
100
AcDbEntity
  8
0
  6
ByLayer
 62
  256
370
   -1
100
AcDbLine
 10
0.5538085179709487
 20
24.98906207774785
 11
0.5608895704047099
 21
25.02536923507389
  0
LINE
  5
4F6
100
AcDbEntity
  8
0
  6
ByLayer
 62
  256
370
   -1
100
AcDbLine
 10
0.5608895704047099
 20
25.02536923507389
 11
0.5688372601063628
 21
25.0617056699069
  0
LINE
  5
4F7
100
AcDbEntity
  8
0
  6
ByLayer
 62
  256
370
   -1
100
AcDbLine
 10
0.5688372601063628
 20
25.0617056699069
 11
0.5776500081746756
 21
25.09805181490694
  0
LINE
  5
4F8
100
AcDbEntity
  8
0
  6
ByLayer
 62
  256
370
   -1
100
AcDbLine
 10
0.5776500081746756
 20
25.09805181490694
 11
0.5873262357084164
 21
25.13438810273409
  0
LINE
  5
4F9
100
AcDbEntity
  8
0
  6
ByLayer
 62
  256
370
   -1
100
AcDbLine
 10
0.5873262357084164
 20
25.13438810273409
 11
0.5978643638063528
 21
25.1706949660484
  0
LINE
  5
4FA
100
AcDbEntity
  8
0
  6
ByLayer
 62
  256
370
   -1
100
AcDbLine
 10
0.5978643638063528
 20
25.1706949660484
 11
0.6092628135672534
 21
25.20695283750997
  0
LINE
  5
4FB
100
AcDbEntity
  8
0
  6
ByLayer
 62
  256
370
   -1
100
AcDbLine
 10
0.6092628135672534
 20
25.20695283750997
 11
0.6215200060898859
 21
25.24314214977884
  0
LINE
  5
4FC
100
AcDbEntity
  8
0
  6
ByLayer
 62
  256
370
   -1
100
AcDbLine
 10
0.6215200060898859
 20
25.24314214977884
 11
0.6346343624730184
 21
25.2792433355151
  0
LINE
  5
4FD
100
AcDbEntity
  8
0
  6
ByLayer
 62
  256
370
   -1
100
AcDbLine
 10
0.6346343624730184
 20
25.2792433355151
 11
0.648604303815419
 21
25.3152368273788
  0
LINE
  5
4FE
100
AcDbEntity
  8
0
  6
ByLayer
 62
  256
370
   -1
100
AcDbLine
 10
0.648604303815419
 20
25.3152368273788
 11
0.6634282512158555
 21
25.35110305803002
  0
LINE
  5
4FF
100
AcDbEntity
  8
0
  6
ByLayer
 62
  256
370
   -1
100
AcDbLine
 10
0.6634282512158555
 20
25.35110305803002
 11
0.6791046257730962
 21
25.38682246012882
  0
LINE
  5
500
100
AcDbEntity
  8
0
  6
ByLayer
 62
  256
370
   -1
100
AcDbLine
 10
0.6791046257730962
 20
25.38682246012882
 11
0.6956318485859092
 21
25.42237546633529
  0
LINE
  5
501
100
AcDbEntity
  8
0
  6
ByLayer
 62
  256
370
   -1
100
AcDbLine
 10
0.6956318485859092
 20
25.42237546633529
 11
0.7130083407530622
 21
25.45774250930947
  0
LINE
  5
502
100
AcDbEntity
  8
0
  6
ByLayer
 62
  256
370
   -1
100
AcDbLine
 10
0.7130083407530622
 20
25.45774250930947
 11
0.7312325233733233
 21
25.49290402171144
  0
LINE
  5
503
100
AcDbEntity
  8
0
  6
ByLayer
 62
  256
370
   -1
100
AcDbLine
 10
0.7312325233733233
 20
25.49290402171144
 11
0.7503028175454609
 21
25.52784043620128
  0
LINE
  5
504
100
AcDbEntity
  8
0
  6
ByLayer
 62
  256
370
   -1
100
AcDbLine
 10
0.7503028175454609
 20
25.52784043620128
 11
0.7702176443682427
 21
25.56253218543905
  0
LINE
  5
505
100
AcDbEntity
  8
0
  6
ByLayer
 62
  256
370
   -1
100
AcDbLine
 10
0.7702176443682427
 20
25.56253218543905
 11
0.7909754249404368
 21
25.59695970208482
  0
LINE
  5
506
100
AcDbEntity
  8
0
  6
ByLayer
 62
  256
370
   -1
100
AcDbLine
 10
0.7909754249404368
 20
25.59695970208482
 11
0.8125745803608111
 21
25.63110341879865
  0
LINE
  5
507
100
AcDbEntity
  8
0
  6
ByLayer
 62
  256
370
   -1
100
AcDbLine
 10
0.8125745803608111
 20
25.63110341879865
 11
0.8350135476092122
 21
25.66494422281803
  0
LINE
  5
508
100
AcDbEntity
  8
0
  6
ByLayer
 62
  256
370
   -1
100
AcDbLine
 10
0.8350135476092122
 20
25.66494422281803
 11
0.8582911289302709
 21
25.69847345666069
  0
LINE
  5
509
100
AcDbEntity
  8
0
  6
ByLayer
 62
  256
370
   -1
100
AcDbLine
 10
0.8582911289302709
 20
25.69847345666069
 11
0.8824064918334076
 21
25.73169291812469
  0
LINE
  5
50A
100
AcDbEntity
  8
0
  6
ByLayer
 62
  256
370
   -1
100
AcDbLine
 10
0.8824064918334076
 20
25.73169291812469
 11
0.9073588197091184
 21
25.76460485958546
  0
LINE
  5
50B
100
AcDbEntity
  8
0
  6
ByLayer
 62
  256
370
   -1
100
AcDbLine
 10
0.9073588197091184
 20
25.76460485958546
 11
0.9331472959479004
 21
25.79721153341845
  0
LINE
  5
50C
100
AcDbEntity
  8
0
  6
ByLayer
 62
  256
370
   -1
100
AcDbLine
 10
0.9331472959479004
 20
25.79721153341845
 11
0.9597711039402498
 21
25.82951519199909
  0
LINE
  5
50D
100
AcDbEntity
  8
0
  6
ByLayer
 62
  256
370
   -1
100
AcDbLine
 10
0.9597711039402498
 20
25.82951519199909
 11
0.9872294270766637
 21
25.86151808770282
  0
LINE
  5
50E
100
AcDbEntity
  8
0
  6
ByLayer
 62
  256
370
   -1
100
AcDbLine
 10
0.9872294270766637
 20
25.86151808770282
 11
1.015521448747639
 21
25.89322247290509
  0
LINE
  5
50F
100
AcDbEntity
  8
0
  6
ByLayer
 62
  256
370
   -1
100
AcDbLine
 10
1.015521448747639
 20
25.89322247290509
 11
1.044646352343672
 21
25.92463059998133
  0
LINE
  5
510
100
AcDbEntity
  8
0
  6
ByLayer
 62
  256
370
   -1
100
AcDbLine
 10
1.044646352343672
 20
25.92463059998133
 11
1.074603321255261
 21
25.95574472130699
  0
LINE
  5
511
100
AcDbEntity
  8
0
  6
ByLayer
 62
  256
370
   -1
100
AcDbLine
 10
1.074603321255261
 20
25.95574472130699
 11
1.1053915388729
 21
25.9865670892575
  0
LINE
  5
512
100
AcDbEntity
  8
0
  6
ByLayer
 62
  256
370
   -1
100
AcDbLine
 10
1.1053915388729
 20
25.9865670892575
 11
1.137010188587088
 21
26.01709995620832
  0
LINE
  5
513
100
AcDbEntity
  8
0
  6
ByLayer
 62
  256
370
   -1
100
AcDbLine
 10
1.137010188587088
 20
26.01709995620832
 11
1.169458453788321
 21
26.04734557453487
  0
LINE
  5
514
100
AcDbEntity
  8
0
  6
ByLayer
 62
  256
370
   -1
100
AcDbLine
 10
1.169458453788321
 20
26.04734557453487
 11
1.202735517867096
 21
26.07730619661259
  0
LINE
  5
515
100
AcDbEntity
  8
0
  6
ByLayer
 62
  256
370
   -1
100
AcDbLine
 10
1.202735517867096
 20
26.07730619661259
 11
1.236840564213909
 21
26.10698407481695
  0
LINE
  5
516
100
AcDbEntity
  8
0
  6
ByLayer
 62
  256
370
   -1
100
AcDbLine
 10
1.236840564213909
 20
26.10698407481695
 11
1.271772776219257
 21
26.13638146152335
  0
LINE
  5
517
100
AcDbEntity
  8
0
  6
ByLayer
 62
  256
370
   -1
100
AcDbLine
 10
1.271772776219257
 20
26.13638146152335
 11
1.307531337273638
 21
26.16550060910726
  0
LINE
  5
518
100
AcDbEntity
  8
0
  6
ByLayer
 62
  256
370
   -1
100
AcDbLine
 10
1.307531337273638
 20
26.16550060910726
 11
1.344115430767547
 21
26.1943437699441
  0
LINE
  5
519
100
AcDbEntity
  8
0
  6
ByLayer
 62
  256
370
   -1
100
AcDbLine
 10
1.344115430767547
 20
26.1943437699441
 11
1.381524240091482
 21
26.22291319640933
  0
LINE
  5
51A
100
AcDbEntity
  8
0
  6
ByLayer
 62
  256
370
   -1
100
AcDbLine
 10
1.381524240091482
 20
26.22291319640933
 11
1.419756948635939
 21
26.25121114087838
  0
LINE
  5
51B
100
AcDbEntity
  8
0
  6
ByLayer
 62
  256
370
   -1
100
AcDbLine
 10
1.419756948635939
 20
26.25121114087838
 11
1.458812739791415
 21
26.27923985572669
  0
LINE
  5
51C
100
AcDbEntity
  8
0
  6
ByLayer
 62
  256
370
   -1
100
AcDbLine
 10
1.458812739791415
 20
26.27923985572669
 11
1.498690796948407
 21
26.30700159332971
  0
LINE
  5
51D
100
AcDbEntity
  8
0
  6
ByLayer
 62
  256
370
   -1
100
AcDbLine
 10
1.498690796948407
 20
26.30700159332971
 11
1.539390303497411
 21
26.33449860606286
  0
LINE
  5
51E
100
AcDbEntity
  8
0
  6
ByLayer
 62
  256
370
   -1
100
AcDbLine
 10
1.539390303497411
 20
26.33449860606286
 11
1.580910442828924
 21
26.3617331463016
  0
LINE
  5
51F
100
AcDbEntity
  8
0
  6
ByLayer
 62
  256
370
   -1
100
AcDbLine
 10
1.580910442828924
 20
26.3617331463016
 11
1.623250398333444
 21
26.38870746642137
  0
LINE
  5
520
100
AcDbEntity
  8
0
  6
ByLayer
 62
  256
370
   -1
100
AcDbLine
 10
1.623250398333444
 20
26.38870746642137
 11
1.666408042748334
 21
26.41542332548857
  0
LINE
  5
521
100
AcDbEntity
  8
0
  6
ByLayer
 62
  256
370
   -1
100
AcDbLine
 10
1.666408042748334
 20
26.41542332548857
 11
1.710360282181995
 21
26.44187459106336
  0
LINE
  5
522
100
AcDbEntity
  8
0
  6
ByLayer
 62
  256
370
   -1
100
AcDbLine
 10
1.710360282181995
 20
26.44187459106336
 11
1.755067160024836
 21
26.46804878384658
  0
LINE
  5
523
100
AcDbEntity
  8
0
  6
ByLayer
 62
  256
370
   -1
100
AcDbLine
 10
1.755067160024836
 20
26.46804878384658
 11
1.800488242023993
 21
26.49393324476174
  0
LINE
  5
524
100
AcDbEntity
  8
0
  6
ByLayer
 62
  256
370
   -1
100
AcDbLine
 10
1.800488242023993
 20
26.49393324476174
 11
1.846583093926606
 21
26.51951531473231
  0
LINE
  5
525
100
AcDbEntity
  8
0
  6
ByLayer
 62
  256
370
   -1
100
AcDbLine
 10
1.846583093926606
 20
26.51951531473231
 11
1.893311281479813
 21
26.54478233468179
  0
LINE
  5
526
100
AcDbEntity
  8
0
  6
ByLayer
 62
  256
370
   -1
100
AcDbLine
 10
1.893311281479813
 20
26.54478233468179
 11
1.940632370430753
 21
26.56972164553368
  0
LINE
  5
527
100
AcDbEntity
  8
0
  6
ByLayer
 62
  256
370
   -1
100
AcDbLine
 10
1.940632370430753
 20
26.56972164553368
 11
1.988505926526563
 21
26.59432058821147
  0
LINE
  5
528
100
AcDbEntity
  8
0
  6
ByLayer
 62
  256
370
   -1
100
AcDbLine
 10
1.988505926526563
 20
26.59432058821147
 11
2.036891515514383
 21
26.61856650363865
  0
LINE
  5
529
100
AcDbEntity
  8
0
  6
ByLayer
 62
  256
370
   -1
100
AcDbLine
 10
2.036891515514383
 20
26.61856650363865
 11
2.08574870314135
 21
26.64244673273873
  0
LINE
  5
52A
100
AcDbEntity
  8
0
  6
ByLayer
 62
  256
370
   -1
100
AcDbLine
 10
2.08574870314135
 20
26.64244673273873
 11
2.135037055154604
 21
26.66594861643518
  0
LINE
  5
52B
100
AcDbEntity
  8
0
  6
ByLayer
 62
  256
370
   -1
100
AcDbLine
 10
2.135037055154604
 20
26.66594861643518
 11
2.184716137301282
 21
26.68905949565152
  0
LINE
  5
52C
100
AcDbEntity
  8
0
  6
ByLayer
 62
  256
370
   -1
100
AcDbLine
 10
2.184716137301282
 20
26.68905949565152
 11
2.234745515328523
 21
26.71176671131122
  0
LINE
  5
52D
100
AcDbEntity
  8
0
  6
ByLayer
 62
  256
370
   -1
100
AcDbLine
 10
2.234745515328523
 20
26.71176671131122
 11
2.285084754983466
 21
26.73405760433779
  0
LINE
  5
52E
100
AcDbEntity
  8
0
  6
ByLayer
 62
  256
370
   -1
100
AcDbLine
 10
2.285084754983466
 20
26.73405760433779
 11
2.335693422013248
 21
26.75591951565472
  0
LINE
  5
52F
100
AcDbEntity
  8
0
  6
ByLayer
 62
  256
370
   -1
100
AcDbLine
 10
2.335693422013248
 20
26.75591951565472
 11
2.386531082165008
 21
26.7773397861855
  0
LINE
  5
530
100
AcDbEntity
  8
0
  6
ByLayer
 62
  256
370
   -1
100
AcDbLine
 10
2.386531082165008
 20
26.7773397861855
 11
2.437557301185886
 21
26.79830575685362
  0
LINE
  5
531
100
AcDbEntity
  8
0
  6
ByLayer
 62
  256
370
   -1
100
AcDbLine
 10
2.437557301185886
 20
26.79830575685362
 11
2.488731644823018
 21
26.81880476858259
  0
LINE
  5
532
100
AcDbEntity
  8
0
  6
ByLayer
 62
  256
370
   -1
100
AcDbLine
 10
2.488731644823018
 20
26.81880476858259
 11
2.540013678823543
 21
26.83882416229589
  0
LINE
  5
533
100
AcDbEntity
  8
0
  6
ByLayer
 62
  256
370
   -1
100
AcDbLine
 10
2.540013678823543
 20
26.83882416229589
 11
2.5913629689346
 21
26.85835127891702
  0
LINE
  5
534
100
AcDbEntity
  8
0
  6
ByLayer
 62
  256
370
   -1
100
AcDbLine
 10
2.5913629689346
 20
26.85835127891702
 11
2.642739080903328
 21
26.87737345936948
  0
LINE
  5
535
100
AcDbEntity
  8
0
  6
ByLayer
 62
  256
370
   -1
100
AcDbLine
 10
2.642739080903328
 20
26.87737345936948
 11
2.694101580476864
 21
26.89587804457675
  0
LINE
  5
536
100
AcDbEntity
  8
0
  6
ByLayer
 62
  256
370
   -1
100
AcDbLine
 10
2.694101580476864
 20
26.89587804457675
 11
2.745410033402346
 21
26.91385237546233
  0
LINE
  5
537
100
AcDbEntity
  8
0
  6
ByLayer
 62
  256
370
   -1
100
AcDbLine
 10
2.745410033402346
 20
26.91385237546233
 11
2.796624005426915
 21
26.93128379294973
  0
LINE
  5
538
100
AcDbEntity
  8
0
  6
ByLayer
 62
  256
370
   -1
100
AcDbLine
 10
2.796624005426915
 20
26.93128379294973
 11
2.847703062297708
 21
26.94815963796241
  0
LINE
  5
539
100
AcDbEntity
  8
0
  6
ByLayer
 62
  256
370
   -1
100
AcDbLine
 10
2.847703062297708
 20
26.94815963796241
 11
2.898608609750816
 21
26.96446806710552
  0
LINE
  5
53A
100
AcDbEntity
  8
0
  6
ByLayer
 62
  256
370
   -1
100
AcDbLine
 10
2.898608609750816
 20
26.96446806710552
 11
2.949323443393919
 21
26.98020671928311
  0
LINE
  5
53B
100
AcDbEntity
  8
0
  6
ByLayer
 62
  256
370
   -1
100
AcDbLine
 10
2.949323443393919
 20
26.98020671928311
 11
2.999844158751848
 21
26.99537935101147
  0
LINE
  5
53C
100
AcDbEntity
  8
0
  6
ByLayer
 62
  256
370
   -1
100
AcDbLine
 10
2.999844158751848
 20
26.99537935101147
 11
3.050167581348055
 21
27.00998982076707
  0
LINE
  5
53D
100
AcDbEntity
  8
0
  6
ByLayer
 62
  256
370
   -1
100
AcDbLine
 10
3.050167581348055
 20
27.00998982076707
 11
3.10029053670599
 21
27.02404198702639
  0
LINE
  5
53E
100
AcDbEntity
  8
0
  6
ByLayer
 62
  256
370
   -1
100
AcDbLine
 10
3.10029053670599
 20
27.02404198702639
 11
3.150209850349104
 21
27.03753970826594
  0
LINE
  5
53F
100
AcDbEntity
  8
0
  6
ByLayer
 62
  256
370
   -1
100
AcDbLine
 10
3.150209850349104
 20
27.03753970826594
 11
3.199922347800848
 21
27.05048684296217
  0
LINE
  5
540
100
AcDbEntity
  8
0
  6
ByLayer
 62
  256
370
   -1
100
AcDbLine
 10
3.199922347800848
 20
27.05048684296217
 11
3.249424854584672
 21
27.06288724959158
  0
LINE
  5
541
100
AcDbEntity
  8
0
  6
ByLayer
 62
  256
370
   -1
100
AcDbLine
 10
3.249424854584672
 20
27.06288724959158
 11
3.298714196224028
 21
27.07474478663066
  0
LINE
  5
542
100
AcDbEntity
  8
0
  6
ByLayer
 62
  256
370
   -1
100
AcDbLine
 10
3.298714196224028
 20
27.07474478663066
 11
3.347787198242366
 21
27.08606331255588
  0
LINE
  5
543
100
AcDbEntity
  8
0
  6
ByLayer
 62
  256
370
   -1
100
AcDbLine
 10
3.347787198242366
 20
27.08606331255588
 11
3.396640686163138
 21
27.09684668584373
  0
LINE
  5
544
100
AcDbEntity
  8
0
  6
ByLayer
 62
  256
370
   -1
100
AcDbLine
 10
3.396640686163138
 20
27.09684668584373
 11
3.445271485509794
 21
27.10709876497068
  0
LINE
  5
545
100
AcDbEntity
  8
0
  6
ByLayer
 62
  256
370
   -1
100
AcDbLine
 10
3.445271485509794
 20
27.10709876497068
 11
3.493676421805784
 21
27.11682340841323
  0
LINE
  5
546
100
AcDbEntity
  8
0
  6
ByLayer
 62
  256
370
   -1
100
AcDbLine
 10
3.493676421805784
 20
27.11682340841323
 11
3.541852320574561
 21
27.12602447464786
  0
LINE
  5
547
100
AcDbEntity
  8
0
  6
ByLayer
 62
  256
370
   -1
100
AcDbLine
 10
3.541852320574561
 20
27.12602447464786
 11
3.589796007339574
 21
27.13470582215104
  0
LINE
  5
548
100
AcDbEntity
  8
0
  6
ByLayer
 62
  256
370
   -1
100
AcDbLine
 10
3.589796007339574
 20
27.13470582215104
 11
3.637504307624274
 21
27.14287130939927
  0
LINE
  5
549
100
AcDbEntity
  8
0
  6
ByLayer
 62
  256
370
   -1
100
AcDbLine
 10
3.637504307624274
 20
27.14287130939927
 11
3.684974046952112
 21
27.15052479486902
  0
LINE
  5
54A
100
AcDbEntity
  8
0
  6
ByLayer
 62
  256
370
   -1
100
AcDbLine
 10
3.684974046952112
 20
27.15052479486902
 11
3.73220205084654
 21
27.15767013703678
  0
LINE
  5
54B
100
AcDbEntity
  8
0
  6
ByLayer
 62
  256
370
   -1
100
AcDbLine
 10
3.73220205084654
 20
27.15767013703678
 11
3.779185144831008
 21
27.16431119437903
  0
LINE
  5
54C
100
AcDbEntity
  8
0
  6
ByLayer
 62
  256
370
   -1
100
AcDbLine
 10
3.779185144831008
 20
27.16431119437903
 11
3.825920154428967
 21
27.17045182537226
  0
LINE
  5
54D
100
AcDbEntity
  8
0
  6
ByLayer
 62
  256
370
   -1
100
AcDbLine
 10
3.825920154428967
 20
27.17045182537226
 11
3.872403905163867
 21
27.17609588849295
  0
LINE
  5
54E
100
AcDbEntity
  8
0
  6
ByLayer
 62
  256
370
   -1
100
AcDbLine
 10
3.872403905163867
 20
27.17609588849295
 11
3.918633222559159
 21
27.18124724221757
  0
LINE
  5
54F
100
AcDbEntity
  8
0
  6
ByLayer
 62
  256
370
   -1
100
AcDbLine
 10
3.918633222559159
 20
27.18124724221757
 11
3.964604932138296
 21
27.18590974502262
  0
LINE
  5
550
100
AcDbEntity
  8
0
  6
ByLayer
 62
  256
370
   -1
100
AcDbLine
 10
3.964604932138296
 20
27.18590974502262
 11
4.010315859424725
 21
27.19008725538457
  0
LINE
  5
551
100
AcDbEntity
  8
0
  6
ByLayer
 62
  256
370
   -1
100
AcDbLine
 10
4.010315859424725
 20
27.19008725538457
 11
4.055762829941902
 21
27.19378363177991
  0
LINE
  5
552
100
AcDbEntity
  8
0
  6
ByLayer
 62
  256
370
   -1
100
AcDbLine
 10
4.055762829941902
 20
27.19378363177991
 11
4.100942640399029
 21
27.19700267140236
  0
LINE
  5
553
100
AcDbEntity
  8
0
  6
ByLayer
 62
  256
370
   -1
100
AcDbLine
 10
4.100942640399029
 20
27.19700267140236
 11
4.145851836714672
 21
27.19974763805851
  0
LINE
  5
554
100
AcDbEntity
  8
0
  6
ByLayer
 62
  256
370
   -1
100
AcDbLine
 10
4.145851836714672
 20
27.19974763805851
 11
4.190486835676899
 21
27.2020215209174
  0
LINE
  5
555
100
AcDbEntity
  8
0
  6
ByLayer
 62
  256
370
   -1
100
AcDbLine
 10
4.190486835676899
 20
27.2020215209174
 11
4.234844053006578
 21
27.20382730687828
  0
LINE
  5
556
100
AcDbEntity
  8
0
  6
ByLayer
 62
  256
370
   -1
100
AcDbLine
 10
4.234844053006578
 20
27.20382730687828
 11
4.278919904424579
 21
27.20516798284044
  0
LINE
  5
557
100
AcDbEntity
  8
0
  6
ByLayer
 62
  256
370
   -1
100
AcDbLine
 10
4.278919904424579
 20
27.20516798284044
 11
4.322710805651773
 21
27.20604653570315
  0
LINE
  5
558
100
AcDbEntity
  8
0
  6
ByLayer
 62
  256
370
   -1
100
AcDbLine
 10
4.322710805651773
 20
27.20604653570315
 11
4.366213172409029
 21
27.20646595236568
  0
LINE
  5
559
100
AcDbEntity
  8
0
  6
ByLayer
 62
  256
370
   -1
100
AcDbLine
 10
4.366213172409029
 20
27.20646595236568
 11
4.40942342041722
 21
27.2064292197273
  0
LINE
  5
55A
100
AcDbEntity
  8
0
  6
ByLayer
 62
  256
370
   -1
100
AcDbLine
 10
4.40942342041722
 20
27.2064292197273
 11
4.452337965397214
 21
27.2059393246873
  0
LINE
  5
55B
100
AcDbEntity
  8
0
  6
ByLayer
 62
  256
370
   -1
100
AcDbLine
 10
4.452337965397214
 20
27.2059393246873
 11
4.494953223069882
 21
27.20499925414495
  0
LINE
  5
55C
100
AcDbEntity
  8
0
  6
ByLayer
 62
  256
370
   -1
100
AcDbLine
 10
4.494953223069882
 20
27.20499925414495
 11
4.537265609156094
 21
27.20361199499952
  0
LINE
  5
55D
100
AcDbEntity
  8
0
  6
ByLayer
 62
  256
370
   -1
100
AcDbLine
 10
4.537265609156094
 20
27.20361199499952
 11
4.579271539376723
 21
27.20178053415028
  0
LINE
  5
55E
100
AcDbEntity
  8
0
  6
ByLayer
 62
  256
370
   -1
100
AcDbLine
 10
4.579271539376723
 20
27.20178053415028
 11
4.620967429452636
 21
27.19950785849652
  0
LINE
  5
55F
100
AcDbEntity
  8
0
  6
ByLayer
 62
  256
370
   -1
100
AcDbLine
 10
4.620967429452636
 20
27.19950785849652
 11
4.662349695104704
 21
27.1967969549375
  0
LINE
  5
560
100
AcDbEntity
  8
0
  6
ByLayer
 62
  256
370
   -1
100
AcDbLine
 10
4.662349695104704
 20
27.1967969549375
 11
4.703414752053799
 21
27.1936508103725
  0
LINE
  5
561
100
AcDbEntity
  8
0
  6
ByLayer
 62
  256
370
   -1
100
AcDbLine
 10
4.703414752053799
 20
27.1936508103725
 11
4.744159016020791
 21
27.19007241170079
  0
LINE
  5
562
100
AcDbEntity
  8
0
  6
ByLayer
 62
  256
370
   -1
100
AcDbLine
 10
4.744159016020791
 20
27.19007241170079
 11
4.784578902726549
 21
27.18606474582166
  0
LINE
  5
563
100
AcDbEntity
  8
0
  6
ByLayer
 62
  256
370
   -1
100
AcDbLine
 10
4.784578902726549
 20
27.18606474582166
 11
4.824670827891945
 21
27.18163079963437
  0
LINE
  5
564
100
AcDbEntity
  8
0
  6
ByLayer
 62
  256
370
   -1
100
AcDbLine
 10
4.824670827891945
 20
27.18163079963437
 11
4.864431207237846
 21
27.17677356003821
  0
LINE
  5
565
100
AcDbEntity
  8
0
  6
ByLayer
 62
  256
370
   -1
100
AcDbLine
 10
4.864431207237846
 20
27.17677356003821
 11
4.903856456485126
 21
27.17149601393243
  0
LINE
  5
566
100
AcDbEntity
  8
0
  6
ByLayer
 62
  256
370
   -1
100
AcDbLine
 10
4.903856456485126
 20
27.17149601393243
 11
4.942942991354655
 21
27.16580114821632
  0
LINE
  5
567
100
AcDbEntity
  8
0
  6
ByLayer
 62
  256
370
   -1
100
AcDbLine
 10
4.942942991354655
 20
27.16580114821632
 11
4.981687227567301
 21
27.15969194978916
  0
LINE
  5
568
100
AcDbEntity
  8
0
  6
ByLayer
 62
  256
370
   -1
100
AcDbLine
 10
4.981687227567301
 20
27.15969194978916
 11
5.020085580843937
 21
27.15317140555022
  0
LINE
  5
569
100
AcDbEntity
  8
0
  6
ByLayer
 62
  256
370
   -1
100
AcDbLine
 10
5.058134466905432
 20
27.14624250239876
 11
5.095830301472657
 21
27.13890822723408
  0
LINE
  5
56A
100
AcDbEntity
  8
0
  6
ByLayer
 62
  256
370
   -1
100
AcDbLine
 10
5.095830301472657
 20
27.13890822723408
 11
5.133168978033697
 21
27.13116633576372
  0
LINE
  5
56B
100
AcDbEntity
  8
0
  6
ByLayer
 62
  256
370
   -1
100
AcDbLine
 10
5.133168978033697
 20
27.13116633576372
 11
5.170142918273078
 21
27.12297980673257
  0
LINE
  5
56C
100
AcDbEntity
  8
0
  6
ByLayer
 62
  256
370
   -1
100
AcDbLine
 10
5.170142918273078
 20
27.12297980673257
 11
5.206743127580019
 21
27.11429743189362
  0
LINE
  5
56D
100
AcDbEntity
  8
0
  6
ByLayer
 62
  256
370
   -1
100
AcDbLine
 10
5.206743127580019
 20
27.11429743189362
 11
5.24296060716587
 21
27.10506796115028
  0
LINE
  5
56E
100
AcDbEntity
  8
0
  6
ByLayer
 62
  256
370
   -1
100
AcDbLine
 10
5.24296060716587
 20
27.10506796115028
 11
5.278786358241986
 21
27.09524014440596
  0
LINE
  5
56F
100
AcDbEntity
  8
0
  6
ByLayer
 62
  256
370
   -1
100
AcDbLine
 10
5.278786358241986
 20
27.09524014440596
 11
5.314211382019716
 21
27.08476273156408
  0
LINE
  5
570
100
AcDbEntity
  8
0
  6
ByLayer
 62
  256
370
   -1
100
AcDbLine
 10
5.314211382019716
 20
27.08476273156408
 11
5.349226679710413
 21
27.07358447252806
  0
LINE
  5
571
100
AcDbEntity
  8
0
  6
ByLayer
 62
  256
370
   -1
100
AcDbLine
 10
5.349226679710413
 20
27.07358447252806
 11
5.383823252525433
 21
27.06165411720131
  0
LINE
  5
572
100
AcDbEntity
  8
0
  6
ByLayer
 62
  256
370
   -1
100
AcDbLine
 10
5.383823252525433
 20
27.06165411720131
 11
5.417992101676124
 21
27.04892041548726
  0
LINE
  5
573
100
AcDbEntity
  8
0
  6
ByLayer
 62
  256
370
   -1
100
AcDbLine
 10
5.417992101676124
 20
27.04892041548726
 11
5.451724228373845
 21
27.03533211728932
  0
LINE
  5
574
100
AcDbEntity
  8
0
  6
ByLayer
 62
  256
370
   -1
100
AcDbLine
 10
5.451724228373845
 20
27.03533211728932
 11
5.485010633829943
 21
27.02083797251091
  0
LINE
  5
575
100
AcDbEntity
  8
0
  6
ByLayer
 62
  256
370
   -1
100
AcDbLine
 10
5.485010633829943
 20
27.02083797251091
 11
5.517842319255772
 21
27.00538673105545
  0
LINE
  5
576
100
AcDbEntity
  8
0
  6
ByLayer
 62
  256
370
   -1
100
AcDbLine
 10
5.517842319255772
 20
27.00538673105545
 11
5.550210285862685
 21
26.98892714282635
  0
LINE
  5
577
100
AcDbEntity
  8
0
  6
ByLayer
 62
  256
370
   -1
100
AcDbLine
 10
5.550210285862685
 20
26.98892714282635
 11
5.582105534862034
 21
26.97140795772703
  0
LINE
  5
578
100
AcDbEntity
  8
0
  6
ByLayer
 62
  256
370
   -1
100
AcDbLine
 10
5.582105534862034
 20
26.97140795772703
 11
5.613519067465172
 21
26.95277792566091
  0
LINE
  5
579
100
AcDbEntity
  8
0
  6
ByLayer
 62
  256
370
   -1
100
AcDbLine
 10
5.613519067465172
 20
26.95277792566091
 11
5.644441884883451
 21
26.93298579653142
  0
LINE
  5
57A
100
AcDbEntity
  8
0
  6
ByLayer
 62
  256
370
   -1
100
AcDbLine
 10
5.644441884883451
 20
26.93298579653142
 11
5.674864988328227
 21
26.91198032024196
  0
LINE
  5
57B
100
AcDbEntity
  8
0
  6
ByLayer
 62
  256
370
   -1
100
AcDbLine
 10
5.674864988328227
 20
26.91198032024196
 11
5.704779379010849
 21
26.88971024669596
  0
LINE
  5
57C
100
AcDbEntity
  8
0
  6
ByLayer
 62
  256
370
   -1
100
AcDbLine
 10
5.704779379010849
 20
26.88971024669596
 11
5.73417605814267
 21
26.86612432579683
  0
LINE
  5
57D
100
AcDbEntity
  8
0
  6
ByLayer
 62
  256
370
   -1
100
AcDbLine
 10
5.73417605814267
 20
26.86612432579683
 11
5.763046026935041
 21
26.84117130744798
  0
LINE
  5
57E
100
AcDbEntity
  8
0
  6
ByLayer
 62
  256
370
   -1
100
AcDbLine
 10
5.763046026935041
 20
26.84117130744798
 11
5.791380286599318
 21
26.81479994155284
  0
LINE
  5
57F
100
AcDbEntity
  8
0
  6
ByLayer
 62
  256
370
   -1
100
AcDbLine
 10
5.791380286599318
 20
26.81479994155284
 11
5.81916983834685
 21
26.78695897801483
  0
LINE
  5
580
100
AcDbEntity
  8
0
  6
ByLayer
 62
  256
370
   -1
100
AcDbLine
 10
5.81916983834685
 20
26.78695897801483
 11
5.846405683388994
 21
26.75759716673736
  0
LINE
  5
581
100
AcDbEntity
  8
0
  6
ByLayer
 62
  256
370
   -1
100
AcDbLine
 10
5.846405683388994
 20
26.75759716673736
 11
5.8730788229371
 21
26.72666325762385
  0
LINE
  5
582
100
AcDbEntity
  8
0
  6
ByLayer
 62
  256
370
   -1
100
AcDbLine
 10
5.8730788229371
 20
26.72666325762385
 11
5.899180258202522
 21
26.69410600057773
  0
LINE
  5
583
100
AcDbEntity
  8
0
  6
ByLayer
 62
  256
370
   -1
100
AcDbLine
 10
5.899180258202522
 20
26.69410600057773
 11
5.924705412144998
 21
26.65985032540961
  0
LINE
  5
584
100
AcDbEntity
  8
0
  6
ByLayer
 62
  256
370
   -1
100
AcDbLine
 10
5.924705412144998
 20
26.65985032540961
 11
5.949672441025718
 21
26.62369869694524
  0
LINE
  5
585
100
AcDbEntity
  8
0
  6
ByLayer
 62
  256
370
   -1
100
AcDbLine
 10
5.949672441025718
 20
26.62369869694524
 11
5.974106786526017
 21
26.58541433323091
  0
LINE
  5
586
100
AcDbEntity
  8
0
  6
ByLayer
 62
  256
370
   -1
100
AcDbLine
 10
5.974106786526017
 20
26.58541433323091
 11
5.998033893649355
 21
26.54476043441648
  0
LINE
  5
587
100
AcDbEntity
  8
0
  6
ByLayer
 62
  256
370
   -1
100
AcDbLine
 10
5.998033893649355
 20
26.54476043441648
 11
6.021479207399191
 21
26.50150020065184
  0
LINE
  5
588
100
AcDbEntity
  8
0
  6
ByLayer
 62
  256
370
   -1
100
AcDbLine
 10
6.021479207399191
 20
26.50150020065184
 11
6.044468172778988
 21
26.45539683208688
  0
LINE
  5
589
100
AcDbEntity
  8
0
  6
ByLayer
 62
  256
370
   -1
100
AcDbLine
 10
6.044468172778988
 20
26.45539683208688
 11
6.0670262347922
 21
26.40621352887147
  0
LINE
  5
58A
100
AcDbEntity
  8
0
  6
ByLayer
 62
  256
370
   -1
100
AcDbLine
 10
6.0670262347922
 20
26.40621352887147
 11
6.089178838442293
 21
26.3537134911555
  0
LINE
  5
58B
100
AcDbEntity
  8
0
  6
ByLayer
 62
  256
370
   -1
100
AcDbLine
 10
6.089178838442293
 20
26.3537134911555
 11
6.110951428732727
 21
26.29765991908886
  0
LINE
  5
58C
100
AcDbEntity
  8
0
  6
ByLayer
 62
  256
370
   -1
100
AcDbLine
 10
6.110951428732727
 20
26.29765991908886
 11
6.132369450666957
 21
26.23781601282143
  0
LINE
  5
58D
100
AcDbEntity
  8
0
  6
ByLayer
 62
  256
370
   -1
100
AcDbLine
 10
6.132369450666957
 20
26.23781601282143
 11
6.153458349248448
 21
26.17394497250309
  0
LINE
  5
58E
100
AcDbEntity
  8
0
  6
ByLayer
 62
  256
370
   -1
100
AcDbLine
 10
6.153458349248448
 20
26.17394497250309
 11
6.174243569480655
 21
26.10580999828372
  0
LINE
  5
58F
100
AcDbEntity
  8
0
  6
ByLayer
 62
  256
370
   -1
100
AcDbLine
 10
6.174243569480655
 20
26.10580999828372
 11
6.194750556367044
 21
26.03317429031321
  0
LINE
  5
590
100
AcDbEntity
  8
0
  6
ByLayer
 62
  256
370
   -1
100
AcDbLine
 10
6.194750556367044
 20
26.03317429031321
 11
6.215004754911072
 21
25.95580104874144
  0
LINE
  5
591
100
AcDbEntity
  8
0
  6
ByLayer
 62
  256
370
   -1
100
AcDbLine
 10
6.215004754911072
 20
25.95580104874144
 11
6.235031610116199
 21
25.8734534737183
  0
LINE
  5
592
100
AcDbEntity
  8
0
  6
ByLayer
 62
  256
370
   -1
100
AcDbLine
 10
6.235031610116199
 20
25.8734534737183
 11
6.254856566985885
 21
25.78589476539366
  0
LINE
  5
593
100
AcDbEntity
  8
0
  6
ByLayer
 62
  256
370
   -1
100
AcDbLine
 10
6.254856566985885
 20
25.78589476539366
 11
6.274505070523591
 21
25.69288812391742
  0
LINE
  5
594
100
AcDbEntity
  8
0
  6
ByLayer
 62
  256
370
   -1
100
AcDbLine
 10
6.274505070523591
 20
25.69288812391742
 11
6.294002565732777
 21
25.59419674943945
  0
LINE
  5
595
100
AcDbEntity
  8
0
  6
ByLayer
 62
  256
370
   -1
100
AcDbLine
 10
6.294002565732777
 20
25.59419674943945
 11
6.313374497616901
 21
25.48958384210964
  0
LINE
  5
596
100
AcDbEntity
  8
0
  6
ByLayer
 62
  256
370
   -1
100
AcDbLine
 10
6.313374497616901
 20
25.48958384210964
 11
6.332646311179426
 21
25.37881260207787
  0
LINE
  5
597
100
AcDbEntity
  8
0
  6
ByLayer
 62
  256
370
   -1
100
AcDbLine
 10
6.332646311179426
 20
25.37881260207787
 11
6.351843451423811
 21
25.26164622949403
  0
LINE
  5
598
100
AcDbEntity
  8
0
  6
ByLayer
 62
  256
370
   -1
100
AcDbLine
 10
6.351843451423811
 20
25.26164622949403
 11
6.370991363353515
 21
25.13784792450799
  0
LINE
  5
599
100
AcDbEntity
  8
0
  6
ByLayer
 62
  256
370
   -1
100
AcDbLine
 10
6.370991363353515
 20
25.13784792450799
 11
6.390115491971999
 21
25.00718088726965
  0
LINE
  5
59A
100
AcDbEntity
  8
0
  6
ByLayer
 62
  256
370
   -1
100
AcDbLine
 10
6.390115491971999
 20
25.00718088726965
 11
6.409241282282724
 21
24.86940831792889
  0
LINE
  5
59B
100
AcDbEntity
  8
0
  6
ByLayer
 62
  256
370
   -1
100
AcDbLine
 10
6.409241282282724
 20
24.86940831792889
 11
6.428394179289151
 21
24.72429341663555
  0
LINE
  5
59C
100
AcDbEntity
  8
0
  6
ByLayer
 62
  256
370
   -1
100
AcDbLine
 10
5.020085580843937
 20
27.15317140555022
 11
5.028625978724614
 21
27.15161615398006
  0
LINE
  5
59D
100
AcDbEntity
  8
0
  6
ByLayer
 62
  256
370
   -1
100
AcDbLine
 10
5.028625978724614
 20
27.15161615398006
 11
5.058134466905432
 21
27.14624250239876
  0
MTEXT
  5
59E
100
AcDbEntity
  8
0
  6
ByLayer
 62
  256
370
   -1
100
AcDbMText
 10
17.14641125510198
 20
30.78203944228828
 30
0
 40
0.125
 41
1.906250000000017
 71
    1
 72
    1
  1
CA hinges glued \Pinto bare foam\Pwith clear Gorilla Glue
  7
iso
210
0
220
0
230
1
 50
90
 73
    2
 44
1
  0
MTEXT
  5
59F
100
AcDbEntity
  8
Hardware
  6
ByLayer
 62
  256
370
   -1
100
AcDbMText
 10
8.339857002061917
 20
7.130367767756982
 30
0
 40
0.1
 41
1.513888940317646
 71
    1
 72
    5
  1
Small magnets in \Phatch inner with small\Pscrews in fuse sides.
  7
standard
210
0
220
0
230
1
 50
0
 73
    1
 44
1
  0
MTEXT
  5
5A0
100
AcDbEntity
  8
0
  6
ByLayer
 62
  256
370
   -1
100
AcDbMText
 10
8.22066962457189
 20
8.176384704068024
 30
0
 40
0.125
 41
1.604166859524372
 71
    1
 72
    1
  1
Popsicle stick stub\Phatch pull
  7
standard
210
0
220
0
230
1
 50
0
 73
    2
 44
1
  0
ENDSEC
  0
SECTION
  2
OBJECTS
  0
DICTIONARY
  5
C
330
0
100
AcDbDictionary
281
    1
  3
ACAD_GROUP
350
D
  0
DICTIONARY
  5
D
330
C
100
AcDbDictionary
281
    1
  0
ENDSEC
  0
EOF
