  0
SECTION
  2
HEADER
  9
$ACADVER
  1
AC1015
  9
$ACADMAINTVER
 70
     6
  9
$DWGCODEPAGE
  3
ANSI_1252
  9
$INSBASE
 10
0.0
 20
0.0
 30
0.0
  9
$EXTMIN
 10
0.0
 20
0.0
 30
0.0
  9
$EXTMAX
 10
13.3333333333
 20
60.0
 30
0.0
  9
$LIMMIN
 10
0.0
 20
0.0
  9
$LIMMAX
 10
0.0
 20
0.0
  9
$ORTHOMODE
 70
     0
  9
$REGENMODE
 70
     1
  9
$FILLMODE
 70
     1
  9
$QTEXTMODE
 70
     0
  9
$MIRRTEXT
 70
     1
  9
$LTSCALE
 40
1.0
  9
$ATTMODE
 70
     1
  9
$TEXTSIZE
 40
0.125
  9
$TRACEWID
 40
0.05
  9
$TEXTSTYLE
  7
Standard
  9
$CLAYER
  8
0
  9
$CELTYPE
  6
ByLayer
  9
$CECOLOR
 62
   256
  9
$CELTSCALE
 40
1.0
  9
$DISPSILH
 70
     0
  9
$DIMSCALE
 40
1.0
  9
$DIMASZ
 40
0.13
  9
$DIMEXO
 40
0.05
  9
$DIMDLI
 40
0.38
  9
$DIMRND
 40
0.0
  9
$DIMDLE
 40
0.0
  9
$DIMEXE
 40
0.125
  9
$DIMTP
 40
0.0
  9
$DIMTM
 40
0.0
  9
$DIMTXT
 40
0.125
  9
$DIMCEN
 40
0.09
  9
$DIMTSZ
 40
0.0
  9
$DIMTOL
 70
     0
  9
$DIMLIM
 70
     0
  9
$DIMTIH
 70
     1
  9
$DIMTOH
 70
     1
  9
$DIMSE1
 70
     0
  9
$DIMSE2
 70
     0
  9
$DIMTAD
 70
     0
  9
$DIMZIN
 70
     0
  9
$DIMBLK
  1

  9
$DIMASO
 70
     1
  9
$DIMSHO
 70
     1
  9
$DIMPOST
  1

  9
$DIMAPOST
  1

  9
$DIMALT
 70
     0
  9
$DIMALTD
 70
     2
  9
$DIMALTF
 40
25.4
  9
$DIMLFAC
 40
1.0
  9
$DIMTOFL
 70
     0
  9
$DIMTVP
 40
0.0
  9
$DIMTIX
 70
     0
  9
$DIMSOXD
 70
     0
  9
$DIMSAH
 70
     0
  9
$DIMBLK1
  1

  9
$DIMBLK2
  1

  9
$DIMSTYLE
  2
Standard
  9
$DIMCLRD
 70
     0
  9
$DIMCLRE
 70
     0
  9
$DIMCLRT
 70
     0
  9
$DIMTFAC
 40
1.0
  9
$DIMGAP
 40
0.06
  9
$DIMJUST
 70
     0
  9
$DIMSD1
 70
     0
  9
$DIMSD2
 70
     0
  9
$DIMTOLJ
 70
     1
  9
$DIMTZIN
 70
     0
  9
$DIMALTZ
 70
     0
  9
$DIMALTTZ
 70
     0
  9
$DIMUPT
 70
     0
  9
$DIMDEC
 70
     4
  9
$DIMTDEC
 70
     4
  9
$DIMALTU
 70
     2
  9
$DIMALTTD
 70
     2
  9
$DIMTXSTY
  7
Standard
  9
$DIMAUNIT
 70
     0
  9
$DIMADEC
 70
     0
  9
$DIMALTRND
 40
0.0
  9
$DIMAZIN
 70
     0
  9
$DIMDSEP
 70
    46
  9
$DIMATFIT
 70
     3
  9
$DIMFRAC
 70
     0
  9
$DIMLDRBLK
  1

  9
$DIMLUNIT
 70
     2
  9
$DIMLWD
 70
    -2
  9
$DIMLWE
 70
    -2
  9
$DIMTMOVE
 70
     0
  9
$LUNITS
 70
     2
  9
$LUPREC
 70
     2
  9
$SKETCHINC
 40
0.1
  9
$FILLETRAD
 40
0.5
  9
$AUNITS
 70
     0
  9
$AUPREC
 70
     0
  9
$MENU
  1
.
  9
$ELEVATION
 40
0.0
  9
$PELEVATION
 40
0.0
  9
$THICKNESS
 40
0.0
  9
$LIMCHECK
 70
     0
  9
$CHAMFERA
 40
0.5
  9
$CHAMFERB
 40
0.5
  9
$CHAMFERC
 40
1.0
  9
$CHAMFERD
 40
0.0
  9
$SKPOLY
 70
     0
  9
$TDCREATE
 40
2459006.714147454
  9
$TDUCREATE
 40
2459007.00581412
  9
$TDUPDATE
 40
2459006.714147465
  9
$TDUUPDATE
 40
2459007.005814132
  9
$TDINDWG
 40
0.0000000116
  9
$TDUSRTIMER
 40
0.0000000116
  9
$USRTIMER
 70
     1
  9
$ANGBASE
 50
0.0
  9
$ANGDIR
 70
     0
  9
$PDMODE
 70
     0
  9
$PDSIZE
 40
-1.0
  9
$PLINEWID
 40
0.0
  9
$SPLFRAME
 70
     0
  9
$SPLINETYPE
 70
     6
  9
$SPLINESEGS
 70
     8
  9
$HANDSEED
  5
100
  9
$SURFTAB1
 70
     6
  9
$SURFTAB2
 70
     6
  9
$SURFTYPE
 70
     6
  9
$SURFU
 70
     6
  9
$SURFV
 70
     6
  9
$UCSBASE
  2

  9
$UCSNAME
  2

  9
$UCSORG
 10
0.0
 20
0.0
 30
0.0
  9
$UCSXDIR
 10
1.0
 20
0.0
 30
0.0
  9
$UCSYDIR
 10
0.0
 20
1.0
 30
0.0
  9
$UCSORTHOREF
  2

  9
$UCSORTHOVIEW
 70
     0
  9
$UCSORGTOP
 10
0.0
 20
0.0
 30
0.0
  9
$UCSORGBOTTOM
 10
0.0
 20
0.0
 30
0.0
  9
$UCSORGLEFT
 10
0.0
 20
0.0
 30
0.0
  9
$UCSORGRIGHT
 10
0.0
 20
0.0
 30
0.0
  9
$UCSORGFRONT
 10
0.0
 20
0.0
 30
0.0
  9
$UCSORGBACK
 10
0.0
 20
0.0
 30
0.0
  9
$PUCSBASE
  2

  9
$PUCSNAME
  2

  9
$PUCSORG
 10
0.0
 20
0.0
 30
0.0
  9
$PUCSXDIR
 10
1.0
 20
0.0
 30
0.0
  9
$PUCSYDIR
 10
0.0
 20
1.0
 30
0.0
  9
$PUCSORTHOREF
  2

  9
$PUCSORTHOVIEW
 70
     0
  9
$PUCSORGTOP
 10
0.0
 20
0.0
 30
0.0
  9
$PUCSORGBOTTOM
 10
0.0
 20
0.0
 30
0.0
  9
$PUCSORGLEFT
 10
0.0
 20
0.0
 30
0.0
  9
$PUCSORGRIGHT
 10
0.0
 20
0.0
 30
0.0
  9
$PUCSORGFRONT
 10
0.0
 20
0.0
 30
0.0
  9
$PUCSORGBACK
 10
0.0
 20
0.0
 30
0.0
  9
$USERI1
 70
     0
  9
$USERI2
 70
     0
  9
$USERI3
 70
     0
  9
$USERI4
 70
     0
  9
$USERI5
 70
     0
  9
$USERR1
 40
0.0
  9
$USERR2
 40
0.0
  9
$USERR3
 40
0.0
  9
$USERR4
 40
0.0
  9
$USERR5
 40
0.0
  9
$WORLDVIEW
 70
     1
  9
$SHADEDGE
 70
     3
  9
$SHADEDIF
 70
    70
  9
$TILEMODE
 70
     1
  9
$MAXACTVP
 70
    64
  9
$PINSBASE
 10
0.0
 20
0.0
 30
0.0
  9
$PLIMCHECK
 70
     0
  9
$PEXTMIN
 10
1.0000000000E+20
 20
1.0000000000E+20
 30
1.0000000000E+20
  9
$PEXTMAX
 10
-1.0000000000E+20
 20
-1.0000000000E+20
 30
-1.0000000000E+20
  9
$PLIMMIN
 10
0.0
 20
0.0
  9
$PLIMMAX
 10
12.0
 20
9.0
  9
$UNITMODE
 70
     0
  9
$VISRETAIN
 70
     1
  9
$PLINEGEN
 70
     0
  9
$PSLTSCALE
 70
     1
  9
$TREEDEPTH
 70
  3020
  9
$CMLSTYLE
  2
Standard
  9
$CMLJUST
 70
     0
  9
$CMLSCALE
 40
1.0
  9
$PROXYGRAPHICS
 70
     1
  9
$MEASUREMENT
 70
     0
  9
$CELWEIGHT
370
    -1
  9
$ENDCAPS
280
     0
  9
$JOINSTYLE
280
     0
  9
$LWDISPLAY
290
     1
  9
$INSUNITS
 70
     1
  9
$HYPERLINKBASE
  1

  9
$STYLESHEET
  1

  9
$XEDIT
290
     1
  9
$CEPSNTYPE
380
     0
  9
$PSTYLEMODE
290
     1
  9
$FINGERPRINTGUID
  2
{1FF517B2-05E1-4346-AE9B-DC3867EA4323}
  9
$VERSIONGUID
  2
{FAEB1C32-E019-11D5-929B-00C0DF256EC4}
  9
$EXTNAMES
290
     1
  9
$PSVPSCALE
 40
0.0
  9
$OLESTARTUP
290
     0
  0
ENDSEC
  0
SECTION
  2
CLASSES
  0
CLASS
  1
ACDBDICTIONARYWDFLT
  2
AcDbDictionaryWithDefault
  3
ObjectDBX Classes
 90
        0
280
     0
281
     0
  0
CLASS
  1
ACDBPLACEHOLDER
  2
AcDbPlaceHolder
  3
ObjectDBX Classes
 90
        0
280
     0
281
     0
  0
CLASS
  1
LAYOUT
  2
AcDbLayout
  3
ObjectDBX Classes
 90
        0
280
     0
281
     0
  0
ENDSEC
  0
SECTION
  2
TABLES
  0
TABLE
  2
VPORT
  5
8
330
0
100
AcDbSymbolTable
 70
     1
  0
VPORT
  5
29
330
8
100
AcDbSymbolTableRecord
100
AcDbViewportTableRecord
  2
*Active
 70
     0
 10
0.0
 20
0.0
 11
1.0
 21
1.0
 12
6.6666666667
 22
30.0
 13
0.0
 23
0.0
 14
0.5
 24
0.5
 15
0.5
 25
0.5
 16
0.0
 26
0.0
 36
1.0
 17
0.0
 27
0.0
 37
0.0
 40
60.0
 41
0.2222222222
 42
50.0
 43
0.0
 44
0.0
 50
0.0
 51
0.0
 71
     0
 72
  2000
 73
     1
 74
     3
 75
     0
 76
     0
 77
     0
 78
     0
281
     0
 65
     1
110
0.0
120
0.0
130
0.0
111
1.0
121
0.0
131
0.0
112
0.0
122
1.0
132
0.0
 79
     0
146
0.0
  0
ENDTAB
  0
TABLE
  2
LTYPE
  5
5
330
0
100
AcDbSymbolTable
 70
     6
  0
LTYPE
  5
14
330
5
100
AcDbSymbolTableRecord
100
AcDbLinetypeTableRecord
  2
ByBlock
 70
     0
  3

 72
    65
 73
     0
 40
0.0
  0
LTYPE
  5
15
330
5
100
AcDbSymbolTableRecord
100
AcDbLinetypeTableRecord
  2
ByLayer
 70
     0
  3

 72
    65
 73
     0
 40
0.0
  0
LTYPE
  5
16
330
5
100
AcDbSymbolTableRecord
100
AcDbLinetypeTableRecord
  2
Continuous
 70
     0
  3
Solid line
 72
    65
 73
     0
 40
0.0
  0
LTYPE
  5
2A
330
5
100
AcDbSymbolTableRecord
100
AcDbLinetypeTableRecord
  2
HIDDEN
 70
     0
  3
Hidden __ __ __ __ __ __ __ __ __ __ __ __ __ __
 72
    65
 73
     2
 40
0.075
 49
0.05
 74
     0
 49
-0.025
 74
     0
  0
LTYPE
  5
2B
330
5
100
AcDbSymbolTableRecord
100
AcDbLinetypeTableRecord
  2
PHANTOM
 70
     0
  3
Phantom ______  __  __  ______  __  __  ______
 72
    65
 73
     6
 40
0.5
 49
0.25
 74
     0
 49
-0.05
 74
     0
 49
0.05
 74
     0
 49
-0.05
 74
     0
 49
0.05
 74
     0
 49
-0.05
 74
     0
  0
LTYPE
  5
2C
330
5
100
AcDbSymbolTableRecord
100
AcDbLinetypeTableRecord
  2
CENTER
 70
     0
  3
Center ____ _ ____ _ ____ _ ____ _ ____ _ ____
 72
    65
 73
     4
 40
0.4
 49
0.25
 74
     0
 49
-0.05
 74
     0
 49
0.05
 74
     0
 49
-0.05
 74
     0
  0
LTYPE
  5
2D
330
5
100
AcDbSymbolTableRecord
100
AcDbLinetypeTableRecord
  2
CENTERX2
 70
     0
  3
Center (2x) ________  __  ________  __  _____
 72
    65
 73
     4
 40
0.8
 49
0.5
 74
     0
 49
-0.1
 74
     0
 49
0.1
 74
     0
 49
-0.1
 74
     0
  0
LTYPE
  5
2E
330
5
100
AcDbSymbolTableRecord
100
AcDbLinetypeTableRecord
  2
DOT2
 70
     0
  3
Dot (.5x) ........................................
 72
    65
 73
     2
 40
0.025
 49
0.0
 74
     0
 49
-0.025
 74
     0
  0
ENDTAB
  0
TABLE
  2
LAYER
  5
2
330
0
100
AcDbSymbolTable
 70
     1
  0
LAYER
  5
10
330
2
100
AcDbSymbolTableRecord
100
AcDbLayerTableRecord
  2
0
 70
     0
 62
     7
  6
Continuous
370
    -3
390
F
  0
ENDTAB
  0
TABLE
  2
STYLE
  5
3
330
0
100
AcDbSymbolTable
 70
     1
  0
STYLE
  5
11
330
3
100
AcDbSymbolTableRecord
100
AcDbTextStyleTableRecord
  2
Standard
 70
     0
 40
0.0
 41
1.0
 50
0.0
 71
     0
 42
0.2
  3
txt
  4

  0
ENDTAB
  0
TABLE
  2
VIEW
  5
6
330
0
100
AcDbSymbolTable
 70
     0
  0
ENDTAB
  0
TABLE
  2
UCS
  5
7
330
0
100
AcDbSymbolTable
 70
     0
  0
ENDTAB
  0
TABLE
  2
APPID
  5
9
330
0
100
AcDbSymbolTable
 70
     1
  0
APPID
  5
12
330
9
100
AcDbSymbolTableRecord
100
AcDbRegAppTableRecord
  2
ACAD
 70
     0
  0
ENDTAB
  0
TABLE
  2
DIMSTYLE
  5
A
330
0
100
AcDbSymbolTable
 70
     1
100
AcDbDimStyleTable
  0
DIMSTYLE
105
27
330
A
100
AcDbSymbolTableRecord
100
AcDbDimStyleTableRecord
  2
Standard
 70
     0
340
11
  0
ENDTAB
  0
TABLE
  2
BLOCK_RECORD
  5
1
330
0
100
AcDbSymbolTable
 70
     1
  0
BLOCK_RECORD
  5
1F
330
1
100
AcDbSymbolTableRecord
100
AcDbBlockTableRecord
  2
*Model_Space
340
22
  0
BLOCK_RECORD
  5
1B
330
1
100
AcDbSymbolTableRecord
100
AcDbBlockTableRecord
  2
*Paper_Space
340
1E
  0
BLOCK_RECORD
  5
23
330
1
100
AcDbSymbolTableRecord
100
AcDbBlockTableRecord
  2
*Paper_Space0
340
26
  0
ENDTAB
  0
ENDSEC
  0
SECTION
  2
BLOCKS
  0
BLOCK
  5
20
330
1F
100
AcDbEntity
  8
0
100
AcDbBlockBegin
  2
*Model_Space
 70
     0
 71
     0
 10
0.0
 20
0.0
 30
0.0
  3
*Model_Space
  1

  0
ENDBLK
  5
21
330
1F
100
AcDbEntity
  8
0
100
AcDbBlockEnd
  0
BLOCK
  5
1C
330
1B
100
AcDbEntity
 67
     1
  8
0
100
AcDbBlockBegin
  2
*Paper_Space
 70
     0
 71
     0
 10
0.0
 20
0.0
 30
0.0
  3
*Paper_Space
  1

  0
ENDBLK
  5
1D
330
1B
100
AcDbEntity
 67
     1
  8
0
100
AcDbBlockEnd
  0
BLOCK
  5
24
330
23
100
AcDbEntity
  8
0
100
AcDbBlockBegin
  2
*Paper_Space0
 70
     0
 71
     0
 10
0.0
 20
0.0
 30
0.0
  3
*Paper_Space0
  1

  0
ENDBLK
  5
25
330
23
100
AcDbEntity
  8
0
100
AcDbBlockEnd
  0
ENDSEC
  0
SECTION
  2
ENTITIES
  0
LINE
  5
2F
330
1F
100
AcDbEntity
  8
0
  6
Continuous
 62
     7
370
    15
100
AcDbLine
 10
6.8830102632
 20
29.3750561651
 30
0.0
 11
6.9322486278
 21
33.0506141314
 31
0.0
  0
SPLINE
  5
30
330
1F
100
AcDbEntity
  8
0
  6
Continuous
 62
     7
370
    15
100
AcDbSpline
210
0.0
220
0.0
230
1.0
 70
    12
 71
     3
 72
    22
 73
    18
 74
     0
 42
0.00000001
 43
0.00000001
 40
0.0
 40
0.0
 40
0.0
 40
0.0
 40
0.1006592904489741
 40
0.2003499884860758
 40
0.302332287462068
 40
0.3997895750945941
 40
0.4986601909291221
 40
0.5615495967469014
 40
0.6239823211230764
 40
0.68677318425215
 40
0.7492012526837395
 40
0.7907283685547731
 40
0.832961432443971
 40
0.8745364849685473
 40
0.9126732715963707
 40
0.9544347635977498
 40
1.0
 40
1.0
 40
1.0
 40
1.0
 10
8.744476812751005
 20
33.3134189888063
 30
0.0
 41
1.0
 10
8.854133533827795
 20
33.30904497545865
 30
0.0
 41
1.0
 10
9.07239180593724
 20
33.30033903763678
 30
0.0
 41
1.0
 10
9.401253298515948
 20
33.27730927328126
 30
0.0
 41
1.0
 10
9.725560417521235
 20
33.24170988547992
 30
0.0
 41
1.0
 10
10.04624403952384
 20
33.18596087564035
 30
0.0
 41
1.0
 10
10.31946701139352
 20
33.11090674415838
 30
0.0
 41
1.0
 10
10.54601601208195
 20
33.01769476505572
 30
0.0
 41
1.0
 10
10.72420782207544
 20
32.915008549218
 30
0.0
 41
1.0
 10
10.88767357332359
 20
32.79092700807981
 30
0.0
 41
1.0
 10
11.01341193705048
 20
32.65815843204082
 30
0.0
 41
1.0
 10
11.1035239006695
 20
32.52624326513536
 30
0.0
 41
1.0
 10
11.16660642320213
 20
32.40462549163546
 30
0.0
 41
1.0
 10
11.21265760044541
 20
32.27958150032432
 30
0.0
 41
1.0
 10
11.24616732955658
 20
32.15134368485028
 30
0.0
 41
1.0
 10
11.27192245100502
 20
32.01688165525714
 30
0.0
 41
1.0
 10
11.28305605901986
 20
31.92230556320734
 30
0.0
 41
1.0
 10
11.28886533975762
 20
31.87295776247064
 30
0.0
 41
1.0
  0
LINE
  5
31
330
1F
100
AcDbEntity
  8
0
  6
Continuous
 62
     7
370
    15
100
AcDbLine
 10
11.2888653398
 20
31.8729577625
 30
0.0
 11
9.5915113211
 21
31.8956966998
 31
0.0
  0
LINE
  5
32
330
1F
100
AcDbEntity
  8
0
  6
Continuous
 62
     7
370
    15
100
AcDbLine
 10
9.5915113211
 20
31.8956966998
 30
0.0
 11
9.5952785575
 21
32.1769203311
 31
0.0
  0
SPLINE
  5
33
330
1F
100
AcDbEntity
  8
0
  6
Continuous
 62
     7
370
    15
100
AcDbSpline
210
0.0
220
0.0
230
1.0
 70
    12
 71
     3
 72
    12
 73
     8
 74
     0
 42
0.00000001
 43
0.00000001
 40
0.0
 40
0.0
 40
0.0
 40
0.0
 40
0.1768158477788395
 40
0.3671508815344638
 40
0.5635525878190257
 40
0.7902753759132808
 40
1.0
 40
1.0
 40
1.0
 40
1.0
 10
9.59527855754998
 20
32.17692033106911
 30
0.0
 41
1.0
 10
9.593716412880292
 20
32.20005654793081
 30
0.0
 41
1.0
 10
9.590472683317786
 20
32.24809795667814
 30
0.0
 41
1.0
 10
9.559306899131569
 20
32.31649759702461
 30
0.0
 41
1.0
 10
9.506300743599086
 20
32.37732555980734
 30
0.0
 41
1.0
 10
9.433100156224528
 20
32.42097194374097
 30
0.0
 41
1.0
 10
9.376059317773656
 20
32.42723671944178
 30
0.0
 41
1.0
 10
9.348649673294563
 20
32.43024711128319
 30
0.0
 41
1.0
  0
LINE
  5
34
330
1F
100
AcDbEntity
  8
0
  6
Continuous
 62
     7
370
    15
100
AcDbLine
 10
9.3486496733
 20
32.4302471113
 30
0.0
 11
7.6118113907
 21
32.4535140425
 31
0.0
  0
SPLINE
  5
35
330
1F
100
AcDbEntity
  8
0
  6
Continuous
 62
     7
370
    15
100
AcDbSpline
210
0.0
220
0.0
230
1.0
 70
    12
 71
     3
 72
    12
 73
     8
 74
     0
 42
0.00000001
 43
0.00000001
 40
0.0
 40
0.0
 40
0.0
 40
0.0
 40
0.1768135221076322
 40
0.3671485545815211
 40
0.5635516855231876
 40
0.7902795486865208
 40
1.0
 40
1.0
 40
1.0
 40
1.0
 10
7.611811390731947
 20
32.45351404250162
 30
0.0
 41
1.0
 10
7.588675602141159
 20
32.45195202073766
 30
0.0
 41
1.0
 10
7.540634755270635
 20
32.44870852427864
 30
0.0
 41
1.0
 10
7.47223498828392
 20
32.41754403572508
 30
0.0
 41
1.0
 10
7.41140705328534
 20
32.36453696419006
 30
0.0
 41
1.0
 10
7.367760894328459
 20
32.29133645325743
 30
0.0
 41
1.0
 10
7.361495716249056
 20
32.23429584842752
 30
0.0
 41
1.0
 10
7.358485197177752
 20
32.20688691822587
 30
0.0
 41
1.0
  0
LINE
  5
36
330
1F
100
AcDbEntity
  8
0
  6
Continuous
 62
     7
370
    15
100
AcDbLine
 10
7.3584851972
 20
32.2068869182
 30
0.0
 11
7.3316953733
 21
30.2070642603
 31
0.0
  0
SPLINE
  5
37
330
1F
100
AcDbEntity
  8
0
  6
Continuous
 62
     7
370
    15
100
AcDbSpline
210
0.0
220
0.0
230
1.0
 70
    12
 71
     3
 72
    12
 73
     8
 74
     0
 42
0.00000001
 43
0.00000001
 40
0.0
 40
0.0
 40
0.0
 40
0.0
 40
0.1768111583622062
 40
0.3671472518064254
 40
0.5635508555417619
 40
0.7902746144115416
 40
1.0
 40
1.0
 40
1.0
 40
1.0
 10
7.331695373322749
 20
30.20706426034786
 30
0.0
 41
1.0
 10
7.333257636808245
 20
30.18392885686153
 30
0.0
 41
1.0
 10
7.336501667052775
 20
30.13588833788003
 30
0.0
 41
1.0
 10
7.367666637254032
 20
30.0674891562733
 30
0.0
 41
1.0
 10
7.420673199055636
 20
30.00666158855025
 30
0.0
 41
1.0
 10
7.493873428298405
 20
29.9630149711276
 30
0.0
 41
1.0
 10
7.550914110694336
 20
29.95675021040134
 30
0.0
 41
1.0
 10
7.578323670918277
 20
29.95373982677334
 30
0.0
 41
1.0
  0
LINE
  5
38
330
1F
100
AcDbEntity
  8
0
  6
Continuous
 62
     7
370
    15
100
AcDbLine
 10
7.5783236709
 20
29.9537398268
 30
0.0
 11
9.3151619535
 21
29.9304728956
 31
0.0
  0
SPLINE
  5
39
330
1F
100
AcDbEntity
  8
0
  6
Continuous
 62
     7
370
    15
100
AcDbSpline
210
0.0
220
0.0
230
1.0
 70
    12
 71
     3
 72
    12
 73
     8
 74
     0
 42
0.00000001
 43
0.00000001
 40
0.0
 40
0.0
 40
0.0
 40
0.0
 40
0.1768132340393853
 40
0.3671486433135459
 40
0.5635514542711696
 40
0.7902741174325076
 40
1.0
 40
1.0
 40
1.0
 40
1.0
 10
9.315161953480894
 20
29.93047289555491
 30
0.0
 41
1.0
 10
9.338297730096954
 20
29.93203493424172
 30
0.0
 41
1.0
 10
9.386338641981975
 20
29.93527847190891
 30
0.0
 41
1.0
 10
9.454738681938618
 20
29.96644276537602
 30
0.0
 41
1.0
 10
9.515565739999305
 20
30.01944975302226
 30
0.0
 41
1.0
 10
9.559214077058797
 20
30.09264917399747
 30
0.0
 41
1.0
 10
9.565478302630583
 20
30.14969019455696
 30
0.0
 41
1.0
 10
9.568488440365034
 20
30.17710001983066
 30
0.0
 41
1.0
  0
SPLINE
  5
3A
330
1F
100
AcDbEntity
  8
0
  6
Continuous
 62
     7
370
    15
100
AcDbSpline
210
0.0
220
0.0
230
1.0
 70
    12
 71
     3
 72
    16
 73
    12
 74
     0
 42
0.00000001
 43
0.00000001
 40
0.0
 40
0.0
 40
0.0
 40
0.0
 40
0.1249929786483311
 40
0.1406176930284912
 40
0.1415940149145486
 40
0.1421215141820839
 40
0.1426248787249106
 40
0.1484839961257293
 40
0.1562960538197797
 40
0.2500409420260475
 40
1.0
 40
1.0
 40
1.0
 40
1.0
 10
9.568488440365034
 20
30.17710001983066
 30
0.0
 41
1.0
 10
9.568346637017761
 20
30.25875511515874
 30
0.0
 41
1.0
 10
9.568187107580407
 20
30.35061748417518
 30
0.0
 41
1.0
 10
9.572789871201982
 20
30.44603105004593
 30
0.0
 41
1.0
 10
9.572122012715528
 20
30.45682426433247
 30
0.0
 41
1.0
 10
9.572474130813788
 20
30.45835233681997
 30
0.0
 41
1.0
 10
9.577634899600163
 20
30.45814361271902
 30
0.0
 41
1.0
 10
9.586223669420017
 20
30.45820024277508
 30
0.0
 41
1.0
 10
9.658468312161665
 20
30.45691428964534
 30
0.0
 41
1.0
 10
10.21453139924943
 20
30.45067397111567
 30
0.0
 41
1.0
 10
10.77310241913723
 20
30.44268678308064
 30
0.0
 41
1.0
 10
11.26960998886374
 20
30.43558706043298
 30
0.0
 41
1.0
  0
SPLINE
  5
3B
330
1F
100
AcDbEntity
  8
0
  6
Continuous
 62
     7
370
    15
100
AcDbSpline
210
0.0
220
0.0
230
1.0
 70
    12
 71
     3
 72
    21
 73
    17
 74
     0
 42
0.00000001
 43
0.00000001
 40
0.0
 40
0.0
 40
0.0
 40
0.0
 40
0.0669058230967722
 40
0.1254387969111465
 40
0.1670210332428504
 40
0.209254651538061
 40
0.2507772603985049
 40
0.3132073975631133
 40
0.3759999344892246
 40
0.4384344621522054
 40
0.5013256499752141
 40
0.6002051887792198
 40
0.6976652816652988
 40
0.7996484823803425
 40
0.8993440567571653
 40
0.9999999999999999
 40
0.9999999999999999
 40
0.9999999999999999
 40
0.9999999999999999
 10
11.26960998886374
 20
30.43558706043298
 30
0.0
 41
1.0
 10
11.25868136878131
 20
30.3634310705102
 30
0.0
 41
1.0
 10
11.23819177771752
 20
30.2281489658008
 30
0.0
 41
1.0
 10
11.19063435577365
 20
30.05186501168996
 30
0.0
 41
1.0
 10
11.13318487799537
 20
29.90736914826822
 30
0.0
 41
1.0
 10
11.0668179798365
 20
29.78749267412497
 30
0.0
 41
1.0
 10
10.97322078314437
 20
29.65804359851684
 30
0.0
 41
1.0
 10
10.84397130378095
 20
29.52869434869469
 30
0.0
 41
1.0
 10
10.67724043703532
 20
29.40903763450786
 30
0.0
 41
1.0
 10
10.4963623902607
 20
29.31116021667903
 30
0.0
 41
1.0
 10
10.26739116531531
 20
29.22404877436909
 30
0.0
 41
1.0
 10
9.99224852282993
 20
29.15634153685523
 30
0.0
 41
1.0
 10
9.67018224398508
 20
29.10920182081824
 30
0.0
 41
1.0
 10
9.34503776425939
 20
29.082302362903
 30
0.0
 41
1.0
 10
9.015684052143412
 20
29.06809075534792
 30
0.0
 41
1.0
 10
8.797275412391278
 20
29.06523497527638
 30
0.0
 41
1.0
 10
8.687547630401777
 20
29.06380024076471
 30
0.0
 41
1.0
  0
SPLINE
  5
3C
330
1F
100
AcDbEntity
  8
0
  6
Continuous
 62
     7
370
    15
100
AcDbSpline
210
0.0
220
0.0
230
1.0
 70
    12
 71
     3
 72
    13
 73
     9
 74
     0
 42
0.00000001
 43
0.00000001
 40
0.0
 40
0.0
 40
0.0
 40
0.0
 40
0.1678443628368438
 40
0.3347790428195245
 40
0.499838320641934
 40
0.6679751488307138
 40
0.834979619096049
 40
1.0
 40
1.0
 40
1.0
 40
1.0
 10
8.687547630401777
 20
29.06380024076471
 30
0.0
 41
1.0
 10
8.584580850417224
 20
29.06836163525522
 30
0.0
 41
1.0
 10
8.379205349787838
 20
29.07745970239102
 30
0.0
 41
1.0
 10
8.073133535702626
 20
29.10080895511801
 30
0.0
 41
1.0
 10
7.767787441626383
 20
29.13496208597397
 30
0.0
 41
1.0
 10
7.464967885084808
 20
29.18633993196656
 30
0.0
 41
1.0
 10
7.165267249292737
 20
29.25776716048924
 30
0.0
 41
1.0
 10
6.97672035710069
 20
29.33611589374329
 30
0.0
 41
1.0
 10
6.883010263238096
 20
29.37505616510971
 30
0.0
 41
1.0
  0
SPLINE
  5
3D
330
1F
100
AcDbEntity
  8
0
  6
Continuous
 62
     7
370
    15
100
AcDbSpline
210
0.0
220
0.0
230
1.0
 70
    12
 71
     3
 72
    14
 73
    10
 74
     0
 42
0.00000001
 43
0.00000001
 40
0.0
 40
0.0
 40
0.0
 40
0.0
 40
0.1247084121395125
 40
0.2497593981181052
 40
0.37521990119041
 40
0.5002118918457846
 40
0.6652650754343936
 40
0.8321828965351207
 40
1.0
 40
1.0
 40
1.0
 40
1.0
 10
6.932248627765641
 20
33.0506141314171
 30
0.0
 41
1.0
 10
7.003468671136015
 20
33.07896832631228
 30
0.0
 41
1.0
 10
7.146104399239345
 20
33.13575460503758
 30
0.0
 41
1.0
 10
7.369911104094578
 20
33.19266249007951
 30
0.0
 41
1.0
 10
7.596530756583174
 20
33.23553680054047
 30
0.0
 41
1.0
 10
7.8496109772169
 20
33.269000335114
 30
0.0
 41
1.0
 10
8.129286053648213
 20
33.29293267940695
 30
0.0
 41
1.0
 10
8.435896689310674
 20
33.30801289849705
 30
0.0
 41
1.0
 10
8.641432710619851
 20
33.31161373409402
 30
0.0
 41
1.0
 10
8.744476812751005
 20
33.3134189888063
 30
0.0
 41
1.0
  0
SPLINE
  5
3E
330
1F
100
AcDbEntity
  8
0
  6
Continuous
 62
     7
370
    15
100
AcDbSpline
210
0.0
220
0.0
230
1.0
 70
    12
 71
     3
 72
    15
 73
    11
 74
     0
 42
0.00000001
 43
0.00000001
 40
0.0
 40
0.0
 40
0.0
 40
0.0
 40
0.1247939271916258
 40
0.250322220638493
 40
0.3748100750155434
 40
0.4998818965730791
 40
0.6248428157089861
 40
0.7496394479555217
 40
0.8750030542298673
 40
0.9999999999999999
 40
0.9999999999999999
 40
0.9999999999999999
 40
0.9999999999999999
 10
1.476968714291385
 20
55.22418496710133
 30
0.0
 41
1.0
 10
1.414916583677747
 20
55.27128754173571
 30
0.0
 41
1.0
 10
1.290447168537831
 20
55.36576987229143
 30
0.0
 41
1.0
 10
1.127339866778005
 20
55.53433990454611
 30
0.0
 41
1.0
 10
0.9843093414526854
 20
55.71994422522756
 30
0.0
 41
1.0
 10
0.8653229065679331
 20
55.92156689100501
 30
0.0
 41
1.0
 10
0.7709338516201676
 20
56.13602765142714
 30
0.0
 41
1.0
 10
0.7038593043370954
 20
56.36056916645027
 30
0.0
 41
1.0
 10
0.6621699491710382
 20
56.59161436188332
 30
0.0
 41
1.0
 10
0.6581887212055761
 20
56.74785774456532
 30
0.0
 41
1.0
 10
0.6562010225364655
 20
56.82586502435663
 30
0.0
 41
1.0
  0
SPLINE
  5
3F
330
1F
100
AcDbEntity
  8
0
  6
Continuous
 62
     7
370
    15
100
AcDbSpline
210
0.0
220
0.0
230
1.0
 70
    12
 71
     3
 72
    15
 73
    11
 74
     0
 42
0.00000001
 43
0.00000001
 40
0.0
 40
0.0
 40
0.0
 40
0.0
 40
0.1249947972365999
 40
0.2503598848938172
 40
0.3751671189994498
 40
0.5001171394132501
 40
0.6251882996534041
 40
0.7496760807933632
 40
0.8752049110768066
 40
1.0
 40
1.0
 40
1.0
 40
1.0
 10
0.6562010225364655
 20
56.82586502435663
 30
0.0
 41
1.0
 10
0.6596908702086376
 20
56.90381809812827
 30
0.0
 41
1.0
 10
0.6666809040405939
 20
57.05995517749523
 30
0.0
 41
1.0
 10
0.7128123526601514
 20
57.29016065804991
 30
0.0
 41
1.0
 10
0.7842000469296657
 20
57.51336889577303
 30
0.0
 41
1.0
 10
0.8827003483371038
 20
57.72597182027184
 30
0.0
 41
1.0
 10
1.005546808492336
 20
57.92525720067277
 30
0.0
 41
1.0
 10
1.152122100784858
 20
58.10807448355384
 30
0.0
 41
1.0
 10
1.318446872980587
 20
58.27347179127649
 30
0.0
 41
1.0
 10
1.444711818733868
 20
58.36554218231728
 30
0.0
 41
1.0
 10
1.507659239751816
 20
58.41144244096434
 30
0.0
 41
1.0
  0
SPLINE
  5
40
330
1F
100
AcDbEntity
  8
0
  6
Continuous
 62
     7
370
    15
100
AcDbSpline
210
0.0
220
0.0
230
1.0
 70
    12
 71
     3
 72
    23
 73
    19
 74
     0
 42
0.00000001
 43
0.00000001
 40
0.0
 40
0.0
 40
0.0
 40
0.0
 40
0.0623588497336376
 40
0.1243600605170184
 40
0.1871781217350867
 40
0.2495118565616738
 40
0.3121710854877621
 40
0.3748268173341072
 40
0.4373051409598832
 40
0.5001498651849867
 40
0.5625557431658387
 40
0.6251860758381914
 40
0.6878002465260104
 40
0.749897600254161
 40
0.8125038776517319
 40
0.875037730210502
 40
0.9371996877662345
 40
1.0
 40
1.0
 40
1.0
 40
1.0
 10
1.507659239751816
 20
58.41144244096434
 30
0.0
 41
1.0
 10
1.561580129674168
 20
58.46854652714089
 30
0.0
 41
1.0
 10
1.669112663749415
 20
58.58242719753521
 30
0.0
 41
1.0
 10
1.853729944041565
 20
58.72990710611329
 30
0.0
 41
1.0
 10
2.054219914244081
 20
58.85451282130567
 30
0.0
 41
1.0
 10
2.27080887046998
 20
58.95098628727064
 30
0.0
 41
1.0
 10
2.498527350669307
 20
59.01623131605286
 30
0.0
 41
1.0
 10
2.733185177346855
 20
59.0494003275298
 30
0.0
 41
1.0
 10
2.970265921805121
 20
59.05268714533915
 30
0.0
 41
1.0
 10
3.205699681727531
 20
59.02765317032634
 30
0.0
 41
1.0
 10
3.43676353380722
 20
58.97527944425648
 30
0.0
 41
1.0
 10
3.659982234190457
 20
58.89674600714288
 30
0.0
 41
1.0
 10
3.872206158484548
 20
58.79283663721491
 30
0.0
 41
1.0
 10
4.06993012789068
 20
58.6634411883129
 30
0.0
 41
1.0
 10
4.249065410538922
 20
58.50916560720618
 30
0.0
 41
1.0
 10
4.403397750427046
 20
58.33007636594749
 30
0.0
 41
1.0
 10
4.531428290963937
 20
58.1305558358217
 30
0.0
 41
1.0
 10
4.592852457275244
 20
57.98557291165518
 30
0.0
 41
1.0
 10
4.623721429402163
 20
57.91271113568428
 30
0.0
 41
1.0
  0
LINE
  5
41
330
1F
100
AcDbEntity
  8
0
  6
Continuous
 62
     7
370
    15
100
AcDbLine
 10
4.6237214294
 20
57.9127111357
 30
0.0
 11
4.9782141876
 21
57.9092991218
 31
0.0
  0
LINE
  5
42
330
1F
100
AcDbEntity
  8
0
  6
Continuous
 62
     7
370
    15
100
AcDbLine
 10
4.9782141876
 20
57.9092991218
 30
0.0
 11
5.3583885691
 21
59.2612920368
 31
0.0
  0
LINE
  5
43
330
1F
100
AcDbEntity
  8
0
  6
Continuous
 62
     7
370
    15
100
AcDbLine
 10
5.3583885691
 20
59.2612920368
 30
0.0
 11
5.4177022306
 21
59.2607194567
 31
0.0
  0
LINE
  5
44
330
1F
100
AcDbEntity
  8
0
  6
Continuous
 62
     7
370
    15
100
AcDbLine
 10
5.4177022306
 20
59.2607194567
 30
0.0
 11
5.1840895693
 21
56.9208663802
 31
0.0
  0
LINE
  5
45
330
1F
100
AcDbEntity
  8
0
  6
Continuous
 62
     7
370
    15
100
AcDbLine
 10
5.1840895693
 20
56.9208663802
 30
0.0
 11
5.3404250433
 21
56.9052565339
 31
0.0
  0
LINE
  5
46
330
1F
100
AcDbEntity
  8
0
  6
Continuous
 62
     7
370
    15
100
AcDbLine
 10
5.3404250433
 20
56.9052565339
 30
0.0
 11
5.575444515
 21
59.2591988343
 31
0.0
  0
LINE
  5
47
330
1F
100
AcDbEntity
  8
0
  6
Continuous
 62
     7
370
    15
100
AcDbLine
 10
5.575444515
 20
59.2591988343
 30
0.0
 11
5.7727564223
 21
59.2572980562
 31
0.0
  0
LINE
  5
48
330
1F
100
AcDbEntity
  8
0
  6
Continuous
 62
     7
370
    15
100
AcDbLine
 10
5.7727564223
 20
59.2572980562
 30
0.0
 11
5.7249858808
 21
54.2963471522
 31
0.0
  0
LINE
  5
49
330
1F
100
AcDbEntity
  8
0
  6
Continuous
 62
     7
370
    15
100
AcDbLine
 10
5.7249858808
 20
54.2963471522
 30
0.0
 11
5.5276745602
 21
54.2982479303
 31
0.0
  0
LINE
  5
4A
330
1F
100
AcDbEntity
  8
0
  6
Continuous
 62
     7
370
    15
100
AcDbLine
 10
5.5276745602
 20
54.2982479303
 30
0.0
 11
5.338027951
 21
56.6562780768
 31
0.0
  0
LINE
  5
4B
330
1F
100
AcDbEntity
  8
0
  6
Continuous
 62
     7
370
    15
100
AcDbLine
 10
5.338027951
 20
56.6562780768
 30
0.0
 11
5.1814202668
 21
56.6436860089
 31
0.0
  0
LINE
  5
4C
330
1F
100
AcDbEntity
  8
0
  6
Continuous
 62
     7
370
    15
100
AcDbLine
 10
5.1814202668
 20
56.6436860089
 30
0.0
 11
5.3699322758
 21
54.2997685527
 31
0.0
  0
LINE
  5
4D
330
1F
100
AcDbEntity
  8
0
  6
Continuous
 62
     7
370
    15
100
AcDbLine
 10
5.3699322758
 20
54.2997685527
 30
0.0
 11
5.3106186143
 21
54.3003411328
 31
0.0
  0
LINE
  5
4E
330
1F
100
AcDbEntity
  8
0
  6
Continuous
 62
     7
370
    15
100
AcDbLine
 10
5.3106186143
 20
54.3003411328
 30
0.0
 11
4.9565494245
 21
55.6594021261
 31
0.0
  0
LINE
  5
4F
330
1F
100
AcDbEntity
  8
0
  6
Continuous
 62
     7
370
    15
100
AcDbLine
 10
4.9565494245
 20
55.6594021261
 30
0.0
 11
4.6020566663
 21
55.66281414
 31
0.0
  0
SPLINE
  5
50
330
1F
100
AcDbEntity
  8
0
  6
Continuous
 62
     7
370
    15
100
AcDbSpline
210
0.0
220
0.0
230
1.0
 70
    12
 71
     3
 72
    23
 73
    19
 74
     0
 42
0.00000001
 43
0.00000001
 40
0.0
 40
0.0
 40
0.0
 40
0.0
 40
0.0628005813770868
 40
0.12496149710668
 40
0.1874955276617815
 40
0.250101888394275
 40
0.3121991997201179
 40
0.3748137250489411
 40
0.4374439687261322
 40
0.499849934308822
 40
0.5626943544038976
 40
0.6251727848554275
 40
0.6878282275324943
 40
0.7504877856719757
 40
0.8128216833925564
 40
0.8756392703547852
 40
0.9377023434557603
 40
1.0
 40
1.0
 40
1.0
 40
1.0
 10
4.602056666342022
 20
55.6628141400197
 30
0.0
 41
1.0
 10
4.569790733207675
 20
55.59055968089668
 30
0.0
 41
1.0
 10
4.505587516906188
 20
55.44678672232438
 30
0.0
 41
1.0
 10
4.373734822040156
 20
55.24977202332645
 30
0.0
 41
1.0
 10
4.215984548928324
 20
55.07368756783978
 30
0.0
 41
1.0
 10
4.033911079730179
 20
54.92289016070131
 30
0.0
 41
1.0
 10
3.833732203524983
 20
54.797325262336
 30
0.0
 41
1.0
 10
3.619547591054732
 20
54.69751904391827
 30
0.0
 41
1.0
 10
3.394857463200362
 20
54.62329866460119
 30
0.0
 41
1.0
 10
3.162828030387851
 20
54.57538423521697
 30
0.0
 41
1.0
 10
2.926955239134079
 20
54.55489681235121
 30
0.0
 41
1.0
 10
2.689982861253428
 20
54.56274582952597
 30
0.0
 41
1.0
 10
2.456005278394553
 20
54.60041817173157
 30
0.0
 41
1.0
 10
2.229586239178552
 20
54.6700420238615
 30
0.0
 41
1.0
 10
2.014898372176445
 20
54.77067354885303
 30
0.0
 41
1.0
 10
1.81677417824358
 20
54.89915046112958
 30
0.0
 41
1.0
 10
1.635044221035621
 20
55.05017673337968
 30
0.0
 41
1.0
 10
1.529726770482942
 20
55.16610932741774
 30
0.0
 41
1.0
 10
1.476968714291383
 20
55.22418496710134
 30
0.0
 41
1.0
  0
SPLINE
  5
51
330
1F
100
AcDbEntity
  8
0
  6
Continuous
 62
     7
370
    15
100
AcDbSpline
210
0.0
220
0.0
230
1.0
 70
    12
 71
     3
 72
    18
 73
    14
 74
     0
 42
0.00000001
 43
0.00000001
 40
0.0
 40
0.0
 40
0.0
 40
0.0
 40
0.0993600406517995
 40
0.198325283591121
 40
0.2875264655515306
 40
0.3767623998420659
 40
0.4655605097249029
 40
0.5550185373012121
 40
0.6440852678329427
 40
0.7329842372708938
 40
0.8222907684346903
 40
0.9110861556055091
 40
1.0
 40
1.0
 40
1.0
 40
1.0
 10
2.946867360563458
 20
58.61055480746796
 30
0.0
 41
1.0
 10
3.034285589477913
 20
58.59704551247331
 30
0.0
 41
1.0
 10
3.208774699252438
 20
58.57008060038841
 30
0.0
 41
1.0
 10
3.451130414765161
 20
58.48482969911669
 30
0.0
 41
1.0
 10
3.671789535872449
 20
58.37377010273123
 30
0.0
 41
1.0
 10
3.868466469375823
 20
58.23932693719918
 30
0.0
 41
1.0
 10
4.046081417358698
 20
58.0803548849924
 30
0.0
 41
1.0
 10
4.201343825005437
 20
57.89962908686337
 30
0.0
 41
1.0
 10
4.331696199541483
 20
57.70012549773595
 30
0.0
 41
1.0
 10
4.434954838366718
 20
57.48541018726585
 30
0.0
 41
1.0
 10
4.508663186774846
 20
57.25931431229582
 30
0.0
 41
1.0
 10
4.554512816475598
 20
57.02545154279348
 30
0.0
 41
1.0
 10
4.558938608022057
 20
56.86736062234021
 30
0.0
 41
1.0
 10
4.56115297886491
 20
56.78826247207786
 30
0.0
 41
1.0
  0
LINE
  5
52
330
1F
100
AcDbEntity
  8
0
  6
Continuous
 62
     7
370
    15
100
AcDbLine
 10
2.9468673606
 20
58.6105548075
 30
0.0
 11
2.9451648347
 21
58.4337732994
 31
0.0
  0
ARC
  5
53
330
1F
100
AcDbEntity
  8
0
  6
Continuous
 62
     7
370
    15
100
AcDbCircle
 10
2.7419797768
 20
56.8057787593
 30
0.0
 40
1.640625000000001
100
AcDbArc
 50
82.8858738356
 51
96.0107295728
  0
LINE
  5
54
330
1F
100
AcDbEntity
  8
0
  6
Continuous
 62
     7
370
    15
100
AcDbLine
 10
2.5701822189
 20
58.4373841006
 30
0.0
 11
2.5718778791
 21
58.6134974935
 31
0.0
  0
SPLINE
  5
55
330
1F
100
AcDbEntity
  8
0
  6
Continuous
 62
     7
370
    15
100
AcDbSpline
210
0.0
220
0.0
230
1.0
 70
    12
 71
     3
 72
    18
 73
    14
 74
     0
 42
0.00000001
 43
0.00000001
 40
0.0
 40
0.0
 40
0.0
 40
0.0
 40
0.0896872429659119
 40
0.1789607593134658
 40
0.2680969837915123
 40
0.3576675436788753
 40
0.4466911579243069
 40
0.5363491076172457
 40
0.6254152997287453
 40
0.7147444392832222
 40
0.804355782538837
 40
0.9018789323004858
 40
1.0
 40
1.0
 40
1.0
 40
1.0
 10
0.929230188480242
 20
56.82323209477246
 30
0.0
 41
1.0
 10
0.9330228220782081
 20
56.9027666585752
 30
0.0
 41
1.0
 10
0.9405905938821462
 20
57.06146889379956
 30
0.0
 41
1.0
 10
0.9911879611774715
 20
57.29475363270402
 30
0.0
 41
1.0
 10
1.06957593862614
 20
57.51957903594179
 30
0.0
 41
1.0
 10
1.1771142926673
 20
57.73200104688151
 30
0.0
 41
1.0
 10
1.311552890429711
 20
57.92896189578595
 30
0.0
 41
1.0
 10
1.470309110636704
 20
58.10636279543301
 30
0.0
 41
1.0
 10
1.651034406829226
 20
58.26167281024777
 30
0.0
 41
1.0
 10
1.850474746953289
 20
58.39217606159699
 30
0.0
 41
1.0
 10
2.072046246338969
 20
58.49814859584762
 30
0.0
 41
1.0
 10
2.313440235137873
 20
58.57787244709072
 30
0.0
 41
1.0
 10
2.485556659976047
 20
58.60159830808831
 30
0.0
 41
1.0
 10
2.571877879140613
 20
58.6134974934738
 30
0.0
 41
1.0
  0
SPLINE
  5
56
330
1F
100
AcDbEntity
  8
0
  6
Continuous
 62
     7
370
    15
100
AcDbSpline
210
0.0
220
0.0
230
1.0
 70
    12
 71
     3
 72
    18
 73
    14
 74
     0
 42
0.00000001
 43
0.00000001
 40
0.0
 40
0.0
 40
0.0
 40
0.0
 40
0.098126779862841
 40
0.1956446520654004
 40
0.2852631769718667
 40
0.3745926615469619
 40
0.4636516235179792
 40
0.5533172733219607
 40
0.6423405867521843
 40
0.7319039090317251
 40
0.8210475886608082
 40
0.9103219893031065
 40
1.0
 40
1.0
 40
1.0
 40
1.0
 10
2.537098334250217
 20
55.00166721764536
 30
0.0
 41
1.0
 10
2.45101782758666
 20
55.01522972460224
 30
0.0
 41
1.0
 10
2.279390970990072
 20
55.04227057887688
 30
0.0
 41
1.0
 10
2.039571155351718
 20
55.12662854435771
 30
0.0
 41
1.0
 10
1.820078015401497
 20
55.23684644019109
 30
0.0
 41
1.0
 10
1.623194596091089
 20
55.37117554206218
 30
0.0
 41
1.0
 10
1.445489448178045
 20
55.52993233104188
 30
0.0
 41
1.0
 10
1.290183048083459
 20
55.71036126752679
 30
0.0
 41
1.0
 10
1.159562268799656
 20
55.90987392245045
 30
0.0
 41
1.0
 10
1.056136425418747
 20
56.12432775407894
 30
0.0
 41
1.0
 10
0.982091553929234
 20
56.35062140082321
 30
0.0
 41
1.0
 10
0.9359998111105743
 20
56.58483681826044
 30
0.0
 41
1.0
 10
0.9314901197495836
 20
56.74364760841722
 30
0.0
 41
1.0
 10
0.929230188480242
 20
56.82323209477246
 30
0.0
 41
1.0
  0
LINE
  5
57
330
1F
100
AcDbEntity
  8
0
  6
Continuous
 62
     7
370
    15
100
AcDbLine
 10
2.5370983343
 20
55.0016672176
 30
0.0
 11
2.5387947189
 21
55.1777842191
 31
0.0
  0
ARC
  5
58
330
1F
100
AcDbEntity
  8
0
  6
Continuous
 62
     7
370
    15
100
AcDbCircle
 10
2.7419797768
 20
56.8057787593
 30
0.0
 40
1.640624999999998
100
AcDbArc
 50
262.8858738356
 51
276.0107295728
  0
LINE
  5
59
330
1F
100
AcDbEntity
  8
0
  6
Continuous
 62
     7
370
    15
100
AcDbLine
 10
2.9137773347
 20
55.174173418
 30
0.0
 11
2.9120749092
 21
54.9973916404
 31
0.0
  0
SPLINE
  5
5A
330
1F
100
AcDbEntity
  8
0
  6
Continuous
 62
     7
370
    15
100
AcDbSpline
210
0.0
220
0.0
230
1.0
 70
    12
 71
     3
 72
    18
 73
    14
 74
     0
 42
0.00000001
 43
0.00000001
 40
0.0
 40
0.0
 40
0.0
 40
0.0
 40
0.088917971741744
 40
0.1777172262853859
 40
0.267015547764408
 40
0.3559216008505439
 40
0.4449897546033261
 40
0.534439618283486
 40
0.6232452181113319
 40
0.7124808020456133
 40
0.8016750273370599
 40
0.9006455104671576
 40
1.0
 40
1.0
 40
1.0
 40
1.0
 10
4.56115297886491
 20
56.78826247207786
 30
0.0
 41
1.0
 10
4.557416148085818
 20
56.70921782428082
 30
0.0
 41
1.0
 10
4.549947475688669
 20
56.5512340636976
 30
0.0
 41
1.0
 10
4.499600024790808
 20
56.31829792902155
 30
0.0
 41
1.0
 10
4.421548338049775
 20
56.09366166144135
 30
0.0
 41
1.0
 10
4.314171928842327
 20
55.8809753774645
 30
0.0
 41
1.0
 10
4.180005259613631
 20
55.68401554579116
 30
0.0
 41
1.0
 10
4.021283171711114
 20
55.5063194477212
 30
0.0
 41
1.0
 10
3.840643802744355
 20
55.35079382073292
 30
0.0
 41
1.0
 10
3.641411118794365
 20
55.22016665603149
 30
0.0
 41
1.0
 10
3.418655470097044
 20
55.11337846304983
 30
0.0
 41
1.0
 10
3.174707955384754
 20
55.0328148494389
 30
0.0
 41
1.0
 10
2.999732190078025
 20
55.00921460870244
 30
0.0
 41
1.0
 10
2.912074909155493
 20
54.99739164037053
 30
0.0
 41
1.0
  0
SPLINE
  5
5B
330
1F
100
AcDbEntity
  8
0
  6
Continuous
 62
     7
370
    15
100
AcDbSpline
210
0.0
220
0.0
230
1.0
 70
    12
 71
     3
 72
    51
 73
    47
 74
     0
 42
0.00000001
 43
0.00000001
 40
0.0
 40
0.0
 40
0.0
 40
0.0
 40
0.0264383010302728
 40
0.0500741289880564
 40
0.0709077294433077
 40
0.0943587035179292
 40
0.1172858212973968
 40
0.1418310092060161
 40
0.1617080489719371
 40
0.1808415371390658
 40
0.1992354148667974
 40
0.2168938920345992
 40
0.2338218297467072
 40
0.2500248755422383
 40
0.2727924433022546
 40
0.2947522140843138
 40
0.3159279633061827
 40
0.336346128282396
 40
0.3560364408482838
 40
0.3750318995316418
 40
0.418244851862089
 40
0.4596818877548943
 40
0.4999701492316532
 40
0.5200287213895264
 40
0.5402887417867372
 40
0.5608341944859382
 40
0.581745560182688
 40
0.6030992529560134
 40
0.6249671033644865
 40
0.6412132978495179
 40
0.6579644008535175
 40
0.6752417371644845
 40
0.6930647455598775
 40
0.7114509514359492
 40
0.7304164444579068
 40
0.7499759873071176
 40
0.7676987471516624
 40
0.7862806862501847
 40
0.8057289742937185
 40
0.8260496482317482
 40
0.8472481573212349
 40
0.869329256043857
 40
0.8865795641350913
 40
0.9188273097017718
 40
0.9566330087751307
 40
1.0
 40
1.0
 40
1.0
 40
1.0
 10
0.5532093589716183
 20
0.4715210378805995
 30
0.0
 41
1.0
 10
0.6071429200803061
 20
0.5205680122908988
 30
0.0
 41
1.0
 10
0.7092930579673655
 20
0.6134629574041616
 30
0.0
 41
1.0
 10
0.8545458432841626
 20
0.7443424665720415
 30
0.0
 41
1.0
 10
0.9942488913740409
 20
0.8690730944655546
 30
0.0
 41
1.0
 10
1.133387543850667
 20
0.9914963977403781
 30
0.0
 41
1.0
 10
1.281360484868065
 20
1.119361647740987
 30
0.0
 41
1.0
 10
1.423344938228204
 20
1.239069135726637
 30
0.0
 41
1.0
 10
1.558899067446685
 20
1.350146245877916
 30
0.0
 41
1.0
 10
1.682680609815624
 20
1.448806906213684
 30
0.0
 41
1.0
 10
1.803059463107815
 20
1.541896764441222
 30
0.0
 41
1.0
 10
1.92003382755607
 20
1.629418564084092
 30
0.0
 41
1.0
 10
2.033603030951277
 20
1.711375180677756
 30
0.0
 41
1.0
 10
2.160278439110999
 20
1.799198944945182
 30
0.0
 41
1.0
 10
2.300721569879404
 20
1.891456698530347
 30
0.0
 41
1.0
 10
2.455708415613061
 20
1.986391021933999
 30
0.0
 41
1.0
 10
2.608210066117329
 20
2.072794504628803
 30
0.0
 41
1.0
 10
2.758223170836624
 20
2.150669912541566
 30
0.0
 41
1.0
 10
2.905759330118878
 20
2.220018318765267
 30
0.0
 41
1.0
 10
3.114063800104803
 20
2.307350399887672
 30
0.0
 41
1.0
 10
3.385864068967041
 20
2.397810045710607
 30
0.0
 41
1.0
 10
3.724151878327522
 20
2.467237709116725
 30
0.0
 41
1.0
 10
4.004912698315079
 20
2.488159197159856
 30
0.0
 41
1.0
 10
4.227236485908041
 20
2.482398083174843
 30
0.0
 41
1.0
 10
4.394486354363933
 20
2.467125322795304
 30
0.0
 41
1.0
 10
4.56273738501632
 20
2.440877174233102
 30
0.0
 41
1.0
 10
4.731992760397729
 20
2.403664262651856
 30
0.0
 41
1.0
 10
4.902244950377617
 20
2.355492442907388
 30
0.0
 41
1.0
 10
5.0573252675575
 20
2.301954044579789
 30
0.0
 41
1.0
 10
5.197913881238351
 20
2.245993939176092
 30
0.0
 41
1.0
 10
5.324770265677161
 20
2.190022294005467
 30
0.0
 41
1.0
 10
5.45353202821347
 20
2.127817965568516
 30
0.0
 41
1.0
 10
5.584201504079773
 20
2.05938107542686
 30
0.0
 41
1.0
 10
5.716779471866508
 20
1.984712067578603
 30
0.0
 41
1.0
 10
5.851265195814161
 20
1.903808670982288
 30
0.0
 41
1.0
 10
5.981986653626774
 20
1.820308804053044
 30
0.0
 41
1.0
 10
6.109788996617589
 20
1.734298056606498
 30
0.0
 41
1.0
 10
6.235557936397444
 20
1.645875645598896
 30
0.0
 41
1.0
 10
6.365449013140646
 20
1.55091173394427
 30
0.0
 41
1.0
 10
6.499461323509297
 20
1.449402786620267
 30
0.0
 41
1.0
 10
6.637592175429662
 20
1.341344968012184
 30
0.0
 41
1.0
 10
6.767578994077109
 20
1.236645671251965
 30
0.0
 41
1.0
 10
6.919806443562153
 20
1.111015457463935
 30
0.0
 41
1.0
 10
7.103471018531327
 20
0.9553842170633171
 30
0.0
 41
1.0
 10
7.340065363447565
 20
0.7508523678303424
 30
0.0
 41
1.0
 10
7.507996009787493
 20
0.6028778005633237
 30
0.0
 41
1.0
 10
7.597713953586744
 20
0.523821510367745
 30
0.0
 41
1.0
  0
LINE
  5
5C
330
1F
100
AcDbEntity
  8
0
  6
Continuous
 62
     7
370
    15
100
AcDbLine
 10
0.5465061831
 20
0.4717730083
 30
0.0
 11
0.553209359
 21
0.4715210379
 31
0.0
  0
LINE
  5
5D
330
1F
100
AcDbEntity
  8
0
  6
Continuous
 62
     7
370
    15
100
AcDbLine
 10
0.7153480726
 20
4.5332467398
 30
0.0
 11
0.5465061831
 21
0.4717730083
 31
0.0
  0
LINE
  5
5E
330
1F
100
AcDbEntity
  8
0
  6
Continuous
 62
     7
370
    15
100
AcDbLine
 10
0.4475695127
 20
4.5425942852
 30
0.0
 11
0.7153480726
 21
4.5332467398
 31
0.0
  0
LINE
  5
5F
330
1F
100
AcDbEntity
  8
0
  6
Continuous
 62
     7
370
    15
100
AcDbLine
 10
0.5695431436
 20
6.9774833304
 30
0.0
 11
0.4475695127
 21
4.5425942852
 31
0.0
  0
LINE
  5
60
330
1F
100
AcDbEntity
  8
0
  6
Continuous
 62
     7
370
    15
100
AcDbLine
 10
0.5685387819
 20
6.9775197034
 30
0.0
 11
0.5695431436
 21
6.9774833304
 31
0.0
  0
LINE
  5
61
330
1F
100
AcDbEntity
  8
0
  6
Continuous
 62
     7
370
    15
100
AcDbLine
 10
0.6078344346
 20
7.9750820461
 30
0.0
 11
0.5685387819
 21
6.9775197034
 31
0.0
  0
LINE
  5
62
330
1F
100
AcDbEntity
  8
0
  6
Continuous
 62
     7
370
    15
100
AcDbLine
 10
0.6097399059
 20
7.9750110603
 30
0.0
 11
0.6078344346
 21
7.9750820461
 31
0.0
  0
LINE
  5
63
330
1F
100
AcDbEntity
  8
0
  6
Continuous
 62
     7
370
    15
100
AcDbLine
 10
0.6098255583
 20
7.9767733866
 30
0.0
 11
0.6097399059
 21
7.9750110603
 31
0.0
  0
LINE
  5
64
330
1F
100
AcDbEntity
  8
0
  6
Continuous
 62
     7
370
    15
100
AcDbLine
 10
0.6197811766
 20
7.976415524
 30
0.0
 11
0.6098255583
 21
7.9767733866
 31
0.0
  0
SPLINE
  5
65
330
1F
100
AcDbEntity
  8
0
  6
Continuous
 62
     7
370
    15
100
AcDbSpline
210
0.0
220
0.0
230
1.0
 70
    12
 71
     3
 72
    66
 73
    62
 74
     0
 42
0.00000001
 43
0.00000001
 40
0.0
 40
0.0
 40
0.0
 40
0.0
 40
0.0348090962182538
 40
0.0713080677403082
 40
0.1094970612580774
 40
0.1493761036719127
 40
0.1909453054184301
 40
0.2342049427360955
 40
0.2791548230516251
 40
0.2895164119327344
 40
0.2986182569091142
 40
0.3077959066916851
 40
0.3170492695015286
 40
0.3263784408645028
 40
0.335783418422067
 40
0.3452642026186619
 40
0.3717271438858182
 40
0.3987632749999946
 40
0.4263726039501176
 40
0.4545551409296611
 40
0.462030930062
 40
0.469546107976395
 40
0.4771005771717496
 40
0.4846944327091602
 40
0.4923275797716995
 40
0.5000000211300297
 40
0.5422407831990205
 40
0.5865131067222351
 40
0.6328169636857288
 40
0.6488663047617175
 40
0.6651460387781064
 40
0.6816561225980645
 40
0.6983965566497415
 40
0.7153673388138463
 40
0.7325684720215379
 40
0.750000000280732
 40
0.8200000302566129
 40
0.8291666748103108
 40
0.8383333479982441
 40
0.8475000086844269
 40
0.8566667030213245
 40
0.8658333362240995
 40
0.8750000005945813
 40
0.8911189837531138
 40
0.9083120590747001
 40
0.9243305503237617
 40
0.9261804483074023
 40
0.9280408540806758
 40
0.9299117240245156
 40
0.9317930761604464
 40
0.9336849155417516
 40
0.9355872371146049
 40
0.9375000228624586
 40
0.9510074855954814
 40
0.9628878325805003
 40
0.9731410202541834
 40
0.9817670973631586
 40
0.9887660128710055
 40
0.9941378182121156
 40
0.9978824628723654
 40
1.0
 40
1.0
 40
1.0
 40
1.0
 10
2.122898852451309
 20
33.32021720360607
 30
0.0
 41
1.0
 10
2.101461483928956
 20
33.02641223620952
 30
0.0
 41
1.0
 10
2.057546028118755
 20
32.42453896761926
 30
0.0
 41
1.0
 10
1.992577177242745
 20
31.50015560309376
 30
0.0
 41
1.0
 10
1.926237505956176
 20
30.53285832831896
 30
0.0
 41
1.0
 10
1.858735118934692
 20
29.52263253269765
 30
0.0
 41
1.0
 10
1.790008267542259
 20
28.46948193062415
 30
0.0
 41
1.0
 10
1.720077984391831
 20
27.37340577222465
 30
0.0
 41
1.0
 10
1.668075620921027
 20
26.5408305310206
 30
0.0
 41
1.0
 10
1.634503076728789
 20
25.99674188580297
 30
0.0
 41
1.0
 10
1.619634927969739
 20
25.75481169408802
 30
0.0
 41
1.0
 10
1.605395780797361
 20
25.52223935433077
 30
0.0
 41
1.0
 10
1.591092358093026
 20
25.28774351306754
 30
0.0
 41
1.0
 10
1.576722523983225
 20
25.05132430040672
 30
0.0
 41
1.0
 10
1.562288613388783
 20
24.81298079161549
 30
0.0
 41
1.0
 10
1.539172343920997
 20
24.42989605853273
 30
0.0
 41
1.0
 10
1.507278152494142
 20
23.8978589201771
 30
0.0
 41
1.0
 10
1.466584274876676
 20
23.21265391681663
 30
0.0
 41
1.0
 10
1.425400876719636
 20
22.51289968008593
 30
0.0
 41
1.0
 10
1.394211928695152
 20
21.97838096808624
 30
0.0
 41
1.0
 10
1.373044906744103
 20
21.61362156208211
 30
0.0
 41
1.0
 10
1.362012598737575
 20
21.42314100558048
 30
0.0
 41
1.0
 10
1.350948821268893
 20
21.23166141491666
 30
0.0
 41
1.0
 10
1.339849955414465
 20
21.03918382675539
 30
0.0
 41
1.0
 10
1.328719254170683
 20
20.84570803082654
 30
0.0
 41
1.0
 10
1.300803701728657
 20
20.35949973865698
 30
0.0
 41
1.0
 10
1.255438642981727
 20
19.56370896486477
 30
0.0
 41
1.0
 10
1.192163538779502
 20
18.44147479765159
 30
0.0
 41
1.0
 10
1.141872776943503
 20
17.54051611421601
 30
0.0
 41
1.0
 10
1.105011160348315
 20
16.87607517611888
 30
0.0
 41
1.0
 10
1.082187435872002
 20
16.46338489909156
 30
0.0
 41
1.0
 10
1.059108743827818
 20
16.04485114073724
 30
0.0
 41
1.0
 10
1.035774857884166
 20
15.620474303389
 30
0.0
 41
1.0
 10
1.012189022535792
 20
15.19025420954668
 30
0.0
 41
1.0
 10
0.9883453965245327
 20
14.75419080865183
 30
0.0
 41
1.0
 10
0.9401489144876048
 20
13.87000740256248
 30
0.0
 41
1.0
 10
0.8958052010744538
 20
13.0537100075485
 30
0.0
 41
1.0
 10
0.8553210907066144
 20
12.30725072919954
 30
0.0
 41
1.0
 10
0.8427275894939268
 20
12.07486213951533
 30
0.0
 41
1.0
 10
0.8301387294090996
 20
11.84247287649709
 30
0.0
 41
1.0
 10
0.8175562978444185
 20
11.61008360422852
 30
0.0
 41
1.0
 10
0.804979036543668
 20
11.37769402071926
 30
0.0
 41
1.0
 10
0.789240449391586
 20
11.08655290080354
 30
0.0
 41
1.0
 10
0.7697899742603008
 20
10.72758628211583
 30
0.0
 41
1.0
 10
0.747097884429153
 20
10.31072393428595
 30
0.0
 41
1.0
 10
0.7309172871659054
 20
10.01444376358372
 30
0.0
 41
1.0
 10
0.7217988129115583
 20
9.84773012556802
 30
0.0
 41
1.0
 10
0.7192192953324669
 20
9.800567699891376
 30
0.0
 41
1.0
 10
0.7166217074619639
 20
9.753139671485682
 30
0.0
 41
1.0
 10
0.714012188115435
 20
9.705445878450423
 30
0.0
 41
1.0
 10
0.7113839995634922
 20
9.657486536954847
 30
0.0
 41
1.0
 10
0.7087439051179096
 20
9.609261429328932
 30
0.0
 41
1.0
 10
0.7007193947495197
 20
9.462882036024881
 30
0.0
 41
1.0
 10
0.6880800958346989
 20
9.232185802864382
 30
0.0
 41
1.0
 10
0.6715971939055624
 20
8.931010308075974
 30
0.0
 41
1.0
 10
0.6573913985128795
 20
8.671082689660306
 30
0.0
 41
1.0
 10
0.6454613474639774
 20
8.452403417773867
 30
0.0
 41
1.0
 10
0.6358052672086801
 20
8.274972160686296
 30
0.0
 41
1.0
 10
0.6284355912234475
 20
8.138788709624695
 30
0.0
 41
1.0
 10
0.6233073148235805
 20
8.04385497584574
 30
0.0
 41
1.0
 10
0.6207168898319021
 20
7.994311585860389
 30
0.0
 41
1.0
 10
0.6197811765949669
 20
7.976415524032411
 30
0.0
 41
1.0
  0
SPLINE
  5
66
330
1F
100
AcDbEntity
  8
0
  6
Continuous
 62
     7
370
    15
100
AcDbSpline
210
0.0
220
0.0
230
1.0
 70
    12
 71
     3
 72
    12
 73
     8
 74
     0
 42
0.00000001
 43
0.00000001
 40
0.0
 40
0.0
 40
0.0
 40
0.0
 40
0.2069903435751786
 40
0.4046552954647267
 40
0.5953602944091384
 40
0.7930332541774702
 40
1.0
 40
1.0
 40
1.0
 40
1.0
 10
5.539954524999258
 20
33.34559611042678
 30
0.0
 41
1.0
 10
5.304283994513983
 20
33.33741033654275
 30
0.0
 41
1.0
 10
4.843560433701055
 20
33.32140757674034
 30
0.0
 41
1.0
 10
4.165418905519799
 20
33.3076787277531
 30
0.0
 41
1.0
 10
3.497783580541
 20
33.30271595390091
 30
0.0
 41
1.0
 10
2.81953065391009
 20
33.30637020868902
 30
0.0
 41
1.0
 10
2.358638054762237
 20
33.31553140038935
 30
0.0
 41
1.0
 10
2.122898852451309
 20
33.32021720360607
 30
0.0
 41
1.0
  0
SPLINE
  5
67
330
1F
100
AcDbEntity
  8
0
  6
Continuous
 62
     7
370
    15
100
AcDbSpline
210
0.0
220
0.0
230
1.0
 70
    12
 71
     3
 72
    55
 73
    51
 74
     0
 42
0.00000001
 43
0.00000001
 40
0.0
 40
0.0
 40
0.0
 40
0.0
 40
0.0021445109485542
 40
0.0060585145089821
 40
0.0116993364241932
 40
0.0190669526889202
 40
0.028161361972461
 40
0.0389825906707084
 40
0.0515305895564945
 40
0.0597335915604166
 40
0.0650759937268146
 40
0.0690024836084552
 40
0.0730823445376385
 40
0.0773155995761467
 40
0.0817021763745962
 40
0.0862421719547651
 40
0.0909355831219832
 40
0.1027276127780003
 40
0.1153891444014599
 40
0.1282054793693229
 40
0.1395244936142493
 40
0.1508434617552138
 40
0.16216247440524
 40
0.1924812180258229
 40
0.2228000029659069
 40
0.2532613737449885
 40
0.2847786977041965
 40
0.3467918791974726
 40
0.4074429621012827
 40
0.4208713256371208
 40
0.4342310506178623
 40
0.4475220929895431
 40
0.4607445470064077
 40
0.4738983192454519
 40
0.4869835484151673
 40
0.5000000044714287
 40
0.5552721138572013
 40
0.6084175690008586
 40
0.6594365141851234
 40
0.6788978185817977
 40
0.6980310064156622
 40
0.7211293088245261
 40
0.744287124701467
 40
0.7670008445822348
 40
0.7892702907549671
 40
0.8354948427450881
 40
0.8796799801245615
 40
0.9218258408485761
 40
0.961932391578029
 40
1.0
 40
1.0
 40
1.0
 40
1.0
 10
7.419609877726893
 20
8.026897020865853
 30
0.0
 41
1.0
 10
7.418391911027465
 20
8.045004917897268
 30
0.0
 41
1.0
 10
7.414951001143129
 20
8.0961620159601
 30
0.0
 41
1.0
 10
7.40813742292171
 20
8.194937797718207
 30
0.0
 41
1.0
 10
7.398271409298273
 20
8.33781069467539
 30
0.0
 41
1.0
 10
7.385325498506167
 20
8.524416654431572
 30
0.0
 41
1.0
 10
7.369320864768037
 20
8.754757109737383
 30
0.0
 41
1.0
 10
7.350246299474911
 20
9.028831089944923
 30
0.0
 41
1.0
 10
7.33167811282073
 20
9.29537815966927
 30
0.0
 41
1.0
 10
7.316322468298074
 20
9.515669820598454
 30
0.0
 41
1.0
 10
7.306035585032284
 20
9.663174676755999
 30
0.0
 41
1.0
 10
7.298185885968961
 20
9.775870964198637
 30
0.0
 41
1.0
 10
7.290993528072657
 20
9.87920367924869
 30
0.0
 41
1.0
 10
7.283535643040218
 20
9.986421008559354
 30
0.0
 41
1.0
 10
7.275814681209687
 20
10.09752352711139
 30
0.0
 41
1.0
 10
7.267826889670717
 20
10.21251115604281
 30
0.0
 41
1.0
 10
7.255504950648143
 20
10.39002044282384
 30
0.0
 41
1.0
 10
7.238440162363483
 20
10.63609774933211
 30
0.0
 41
1.0
 10
7.216642063818533
 20
10.95075550839015
 30
0.0
 41
1.0
 10
7.195146451420485
 20
11.26142153863994
 30
0.0
 41
1.0
 10
7.174436643333846
 20
11.5607527764923
 30
0.0
 41
1.0
 10
7.154600742494267
 20
11.84744247624357
 30
0.0
 41
1.0
 10
7.123667789973689
 20
12.2945418487269
 30
0.0
 41
1.0
 10
7.081639092537341
 20
12.90205172600934
 30
0.0
 41
1.0
 10
7.028419697682182
 20
13.67117473719249
 30
0.0
 41
1.0
 10
6.974547215302588
 20
14.45042029327978
 30
0.0
 41
1.0
 10
6.901935745467708
 20
15.49723749105063
 30
0.0
 41
1.0
 10
6.810927237771256
 20
16.79888531051498
 30
0.0
 41
1.0
 10
6.729772708130586
 20
17.94776277642419
 30
0.0
 41
1.0
 10
6.677278412934515
 20
18.68588858759644
 30
0.0
 41
1.0
 10
6.653159471609825
 20
19.02421617627518
 30
0.0
 41
1.0
 10
6.62910541795501
 20
19.36080136863611
 30
0.0
 41
1.0
 10
6.605115808972641
 20
19.69564375591977
 30
0.0
 41
1.0
 10
6.581191306123054
 20
20.02874455848179
 30
0.0
 41
1.0
 10
6.557332006369432
 20
20.36010220566217
 30
0.0
 41
1.0
 10
6.507750053594663
 20
21.04697434313581
 30
0.0
 41
1.0
 10
6.433222398027381
 20
22.07195413659662
 30
0.0
 41
1.0
 10
6.334088536481506
 20
23.41760502064344
 30
0.0
 41
1.0
 10
6.25615013518938
 20
24.46093182384122
 30
0.0
 41
1.0
 10
6.19905721800821
 20
25.21717049889059
 30
0.0
 41
1.0
 10
6.159516015278825
 20
25.73777180100688
 30
0.0
 41
1.0
 10
6.117314010887794
 20
26.28954430562271
 30
0.0
 41
1.0
 10
6.07243516629727
 20
26.87150219647329
 30
0.0
 41
1.0
 10
6.02771828033207
 20
27.44643709263574
 30
0.0
 41
1.0
 10
5.967340929625793
 20
28.21595512554556
 30
0.0
 41
1.0
 10
5.891695747928068
 20
29.16654419622139
 30
0.0
 41
1.0
 10
5.800870601070041
 20
30.28466814276979
 30
0.0
 41
1.0
 10
5.712240905095084
 20
31.3510216726805
 30
0.0
 41
1.0
 10
5.626057033555127
 20
32.36562701715426
 30
0.0
 41
1.0
 10
5.568151933282686
 20
33.02466947203256
 30
0.0
 41
1.0
 10
5.539954524999258
 20
33.34559611042678
 30
0.0
 41
1.0
  0
LINE
  5
68
330
1F
100
AcDbEntity
  8
0
  6
Continuous
 62
     7
370
    15
100
AcDbLine
 10
7.4295508296
 20
8.027402135
 30
0.0
 11
7.4196098777
 21
8.0268970209
 31
0.0
  0
LINE
  5
69
330
1F
100
AcDbEntity
  8
0
  6
Continuous
 62
     7
370
    15
100
AcDbLine
 10
7.4296634683
 20
8.0256415687
 30
0.0
 11
7.4295508296
 21
8.027402135
 31
0.0
  0
LINE
  5
6A
330
1F
100
AcDbEntity
  8
0
  6
Continuous
 62
     7
370
    15
100
AcDbLine
 10
7.4315677663
 20
8.0257407142
 30
0.0
 11
7.4296634683
 21
8.0256415687
 31
0.0
  0
LINE
  5
6B
330
1F
100
AcDbEntity
  8
0
  6
Continuous
 62
     7
370
    15
100
AcDbLine
 10
7.4856853811
 20
7.0288723901
 30
0.0
 11
7.4315677663
 21
8.0257407142
 31
0.0
  0
LINE
  5
6C
330
1F
100
AcDbEntity
  8
0
  6
Continuous
 62
     7
370
    15
100
AcDbLine
 10
7.4846821927
 20
7.0288213507
 30
0.0
 11
7.4856853811
 21
7.0288723901
 31
0.0
  0
LINE
  5
6D
330
1F
100
AcDbEntity
  8
0
  6
Continuous
 62
     7
370
    15
100
AcDbLine
 10
7.642833379
 20
4.5960126014
 30
0.0
 11
7.4846821927
 21
7.0288213507
 31
0.0
  0
LINE
  5
6E
330
1F
100
AcDbEntity
  8
0
  6
Continuous
 62
     7
370
    15
100
AcDbLine
 10
7.3752226038
 20
4.5826904353
 30
0.0
 11
7.642833379
 21
4.5960126014
 31
0.0
  0
LINE
  5
6F
330
1F
100
AcDbEntity
  8
0
  6
Continuous
 62
     7
370
    15
100
AcDbLine
 10
7.6044130229
 20
0.5241729196
 30
0.0
 11
7.3752226038
 21
4.5826904353
 31
0.0
  0
LINE
  5
70
330
1F
100
AcDbEntity
  8
0
  6
Continuous
 62
     7
370
    15
100
AcDbLine
 10
7.5977139536
 20
0.5238215104
 30
0.0
 11
7.6044130229
 21
0.5241729196
 31
0.0
  0
LINE
  5
71
330
1F
100
AcDbEntity
  8
0
  6
Continuous
 62
     7
370
    15
100
AcDbLine
 10
3.7967967421
 20
26.3969898747
 30
0.0
 11
3.7888199276
 21
27.4678952635
 31
0.0
  0
LINE
  5
72
330
1F
100
AcDbEntity
  8
0
  6
Continuous
 62
     7
370
    15
100
AcDbLine
 10
3.8044561736
 20
26.3970344608
 30
0.0
 11
3.7967967421
 21
26.3969898747
 31
0.0
  0
LINE
  5
73
330
1F
100
AcDbEntity
  8
0
  6
Continuous
 62
     7
370
    15
100
AcDbLine
 10
3.8045154263
 20
26.3890934325
 30
0.0
 11
3.8044561736
 21
26.3970344608
 31
0.0
  0
LINE
  5
74
330
1F
100
AcDbEntity
  8
0
  6
Continuous
 62
     7
370
    15
100
AcDbLine
 10
3.8045154263
 20
26.3890934325
 30
0.0
 11
3.9615425723
 21
26.3902597124
 31
0.0
  0
LINE
  5
75
330
1F
100
AcDbEntity
  8
0
  6
Continuous
 62
     7
370
    15
100
AcDbLine
 10
3.9614833196
 20
26.3982007407
 30
0.0
 11
3.9615425723
 21
26.3902597124
 31
0.0
  0
LINE
  5
76
330
1F
100
AcDbEntity
  8
0
  6
Continuous
 62
     7
370
    15
100
AcDbLine
 10
3.9691433378
 20
26.3982711399
 30
0.0
 11
3.9614833196
 21
26.3982007407
 31
0.0
  0
LINE
  5
77
330
1F
100
AcDbEntity
  8
0
  6
Continuous
 62
     7
370
    15
100
AcDbLine
 10
3.9612017229
 20
27.4691765287
 30
0.0
 11
3.9691433378
 21
26.3982711399
 31
0.0
  0
LINE
  5
78
330
1F
100
AcDbEntity
  8
0
  6
Continuous
 62
     7
370
    15
100
AcDbLine
 10
3.7888199276
 20
27.4678952635
 30
0.0
 11
3.9612017229
 21
27.4691765287
 31
0.0
  0
LINE
  5
79
330
1F
100
AcDbEntity
  8
0
  6
Continuous
 62
     7
370
    15
100
AcDbLine
 10
8.1744927306
 20
9.7124758956
 30
0.0
 11
8.3751462526
 21
9.67688676
 31
0.0
  0
LINE
  5
7A
330
1F
100
AcDbEntity
  8
0
  6
Continuous
 62
     7
370
    15
100
AcDbLine
 10
8.3751462526
 20
9.67688676
 30
0.0
 11
8.3444885801
 21
10.7489050427
 31
0.0
  0
LINE
  5
7B
330
1F
100
AcDbEntity
  8
0
  6
Continuous
 62
     7
370
    15
100
AcDbLine
 10
8.3444885801
 20
10.7489050427
 30
0.0
 11
8.1439183638
 21
10.781569092
 31
0.0
  0
LINE
  5
7C
330
1F
100
AcDbEntity
  8
0
  6
Continuous
 62
     7
370
    15
100
AcDbLine
 10
8.1439183638
 20
10.781569092
 30
0.0
 11
7.7502977376
 21
24.5454560637
 31
0.0
  0
LINE
  5
7D
330
1F
100
AcDbEntity
  8
0
  6
Continuous
 62
     7
370
    15
100
AcDbLine
 10
7.7502977376
 20
24.5454560637
 30
0.0
 11
8.1710138374
 21
24.4769388819
 31
0.0
  0
LINE
  5
7E
330
1F
100
AcDbEntity
  8
0
  6
Continuous
 62
     7
370
    15
100
AcDbLine
 10
8.1710138374
 20
24.4769388819
 30
0.0
 11
8.2011523159
 21
24.6620019174
 31
0.0
  0
LINE
  5
7F
330
1F
100
AcDbEntity
  8
0
  6
Continuous
 62
     7
370
    15
100
AcDbLine
 10
8.2011523159
 20
24.6620019174
 30
0.0
 11
7.0907811431
 21
24.8428339617
 31
0.0
  0
LINE
  5
80
330
1F
100
AcDbEntity
  8
0
  6
Continuous
 62
     7
370
    15
100
AcDbLine
 10
7.0907811431
 20
24.8428339617
 30
0.0
 11
7.7563045482
 21
28.470527521
 31
0.0
  0
SPLINE
  5
81
330
1F
100
AcDbEntity
  8
0
  6
Continuous
 62
     7
370
    15
100
AcDbSpline
210
0.0
220
0.0
230
1.0
 70
    12
 71
     3
 72
    21
 73
    17
 74
     0
 42
0.00000001
 43
0.00000001
 40
0.0
 40
0.0
 40
0.0
 40
0.0
 40
0.074521415928384
 40
0.140238022988657
 40
0.2104879887937199
 40
0.2802446074799766
 40
0.3505461397959781
 40
0.4204870847311896
 40
0.4900850669862538
 40
0.5583556385944328
 40
0.6310795732658838
 40
0.7053635991968911
 40
0.7752404813626496
 40
0.8424011708536531
 40
0.917319145798854
 40
1.0
 40
1.0
 40
1.0
 40
1.0
 10
12.66755941963263
 20
28.1220210402784
 30
0.0
 41
1.0
 10
12.54507297880724
 20
28.11878167839416
 30
0.0
 41
1.0
 10
12.314572040382
 20
28.11268568973466
 30
0.0
 41
1.0
 10
11.96851372397206
 20
28.1076182066912
 30
0.0
 41
1.0
 10
11.63024961488176
 20
28.10742470378347
 30
0.0
 41
1.0
 10
11.2844842797807
 20
28.11256545560936
 30
0.0
 41
1.0
 10
10.93934829391966
 20
28.12307571511628
 30
0.0
 41
1.0
 10
10.59468262158376
 20
28.13903959534332
 30
0.0
 41
1.0
 10
10.25364628125678
 20
28.16026813323085
 30
0.0
 41
1.0
 10
9.908440393670743
 20
28.18742904123631
 30
0.0
 41
1.0
 10
9.556068500561967
 20
28.22111936600571
 30
0.0
 41
1.0
 10
9.201662749532963
 20
28.260778602332
 30
0.0
 41
1.0
 10
8.856967586109162
 20
28.30459299680752
 30
0.0
 41
1.0
 10
8.511875986999797
 20
28.35325100275206
 30
0.0
 41
1.0
 10
8.14641879373112
 20
28.4081419528181
 30
0.0
 41
1.0
 10
7.890543858854121
 20
28.44906048724911
 30
0.0
 41
1.0
 10
7.756304548201328
 20
28.47052752096846
 30
0.0
 41
1.0
  0
LINE
  5
82
330
1F
100
AcDbEntity
  8
0
  6
Continuous
 62
     7
370
    15
100
AcDbLine
 10
12.6675594196
 20
28.1220210403
 30
0.0
 11
12.5972675183
 21
0.7325294327
 31
0.0
  0
SPLINE
  5
83
330
1F
100
AcDbEntity
  8
0
  6
Continuous
 62
     7
370
    15
100
AcDbSpline
210
0.0
220
0.0
230
1.0
 70
    12
 71
     3
 72
    18
 73
    14
 74
     0
 42
0.00000001
 43
0.00000001
 40
0.0
 40
0.0
 40
0.0
 40
0.0
 40
0.077904655360362
 40
0.1577817153016657
 40
0.239631613746981
 40
0.3361713185196465
 40
0.4019949559080435
 40
0.4816751289347961
 40
0.5571050454162666
 40
0.6665394349795457
 40
0.7817251417844153
 40
0.8940158743971033
 40
1.0
 40
1.0
 40
1.0
 40
1.0
 10
12.59726751831734
 20
0.73252943268935
 30
0.0
 41
1.0
 10
12.48136194121934
 20
0.7291152310135891
 30
0.0
 41
1.0
 10
12.24661626802488
 20
0.7222003862678411
 30
0.0
 41
1.0
 10
11.89012848551671
 20
0.7106163970364963
 30
0.0
 41
1.0
 10
11.50594741452251
 20
0.6972746897348708
 30
0.0
 41
1.0
 10
11.14269496739042
 20
0.6840032202904206
 30
0.0
 41
1.0
 10
10.7826249515778
 20
0.6720896827214109
 30
0.0
 41
1.0
 10
10.45384502575646
 20
0.6649043408033553
 30
0.0
 41
1.0
 10
10.06008226998622
 20
0.6625966291460843
 30
0.0
 41
1.0
 10
9.6134749255532
 20
0.6670104882107507
 30
0.0
 41
1.0
 10
9.112167925979168
 20
0.6802271671296024
 30
0.0
 41
1.0
 10
8.616192967304869
 20
0.7000678767069024
 30
0.0
 41
1.0
 10
8.29194549422801
 20
0.7205970587771725
 30
0.0
 41
1.0
 10
8.134505992519303
 20
0.7305650753817732
 30
0.0
 41
1.0
  0
SPLINE
  5
84
330
1F
100
AcDbEntity
  8
0
  6
Continuous
 62
     7
370
    15
100
AcDbSpline
210
0.0
220
0.0
230
1.0
 70
    12
 71
     3
 72
    20
 73
    16
 74
     0
 42
0.00000001
 43
0.00000001
 40
0.0
 40
0.0
 40
0.0
 40
0.0
 40
0.0973802761576695
 40
0.1868582208895161
 40
0.2797224174846443
 40
0.3726651944392667
 40
0.4663495451993941
 40
0.5600523135522858
 40
0.6229218557924111
 40
0.6857569280747285
 40
0.7485709720976628
 40
0.811026677020187
 40
0.8742764745653016
 40
0.9300702646447151
 40
1.0
 40
1.0
 40
1.0
 40
1.0
 10
8.134505992519303
 20
0.7305650753817732
 30
0.0
 41
1.0
 10
8.156604404709043
 20
0.8079372323153616
 30
0.0
 41
1.0
 10
8.199007960636248
 20
0.9564028576088004
 30
0.0
 41
1.0
 10
8.255964420818335
 20
1.180431257905104
 30
0.0
 41
1.0
 10
8.307267042920849
 20
1.402045889947054
 30
0.0
 41
1.0
 10
8.354155041197695
 20
1.628192043639112
 30
0.0
 41
1.0
 10
8.39615954803482
 20
1.85599744728227
 30
0.0
 41
1.0
 10
8.429229293021582
 20
2.060132596754916
 30
0.0
 41
1.0
 10
8.4549742472348
 20
2.239590644075613
 30
0.0
 41
1.0
 10
8.474836955966538
 20
2.394091649714413
 30
0.0
 41
1.0
 10
8.492418721933989
 20
2.548525074008144
 30
0.0
 41
1.0
 10
8.507717697233955
 20
2.703544431788556
 30
0.0
 41
1.0
 10
8.520457374718632
 20
2.852975757438273
 30
0.0
 41
1.0
 10
8.531115984690745
 20
3.008760551652283
 30
0.0
 41
1.0
 10
8.536780239647658
 20
3.112488282517303
 30
0.0
 41
1.0
 10
8.539930802350638
 20
3.170183552700943
 30
0.0
 41
1.0
  0
SPLINE
  5
85
330
1F
100
AcDbEntity
  8
0
  6
Continuous
 62
     7
370
    15
100
AcDbSpline
210
0.0
220
0.0
230
1.0
 70
    12
 71
     3
 72
    18
 73
    14
 74
     0
 42
0.00000001
 43
0.00000001
 40
0.0
 40
0.0
 40
0.0
 40
0.0
 40
0.0834558138941903
 40
0.1600404343741834
 40
0.2400158408182442
 40
0.3202002373311202
 40
0.4002313422727015
 40
0.4800719592721646
 40
0.5607087273249635
 40
0.6704279571605588
 40
0.7808647291107288
 40
0.889339627733442
 40
1.0
 40
1.0
 40
1.0
 40
1.0
 10
8.539930802350638
 20
3.170183552700943
 30
0.0
 41
1.0
 10
8.546438425552656
 20
3.320703379507576
 30
0.0
 41
1.0
 10
8.558917877796867
 20
3.609350237527584
 30
0.0
 41
1.0
 10
8.570196730864081
 20
4.042511320779595
 30
0.0
 41
1.0
 10
8.575183807635781
 20
4.469877532124371
 30
0.0
 41
1.0
 10
8.573745709958144
 20
4.90349531119485
 30
0.0
 41
1.0
 10
8.56574896404045
 20
5.336797714998758
 30
0.0
 41
1.0
 10
8.551135715326243
 20
5.770745600893658
 30
0.0
 41
1.0
 10
8.527220541934106
 20
6.257946974321214
 30
0.0
 41
1.0
 10
8.49033634412197
 20
6.799751143678435
 30
0.0
 41
1.0
 10
8.43603401298665
 20
7.390557195164931
 30
0.0
 41
1.0
 10
8.368112532301652
 20
7.981738749441036
 30
0.0
 41
1.0
 10
8.30869541439456
 20
8.372872950798095
 30
0.0
 41
1.0
 10
8.278690566886796
 20
8.570390475716417
 30
0.0
 41
1.0
  0
SPLINE
  5
86
330
1F
100
AcDbEntity
  8
0
  6
Continuous
 62
     7
370
    15
100
AcDbSpline
210
0.0
220
0.0
230
1.0
 70
    12
 71
     3
 72
     9
 73
     5
 74
     0
 42
0.00000001
 43
0.00000001
 40
0.0
 40
0.0
 40
0.0
 40
0.0
 40
0.5151937159874166
 40
0.9999999999999999
 40
0.9999999999999999
 40
0.9999999999999999
 40
0.9999999999999999
 10
8.278690566886796
 20
8.570390475716417
 30
0.0
 41
1.0
 10
8.264483061894063
 20
8.656609409626473
 30
0.0
 41
1.0
 10
8.236906046585357
 20
8.82396186606085
 30
0.0
 41
1.0
 10
8.207209058661181
 20
8.990951022882577
 30
0.0
 41
1.0
 10
8.192811772299294
 20
9.071908415471714
 30
0.0
 41
1.0
  0
LINE
  5
87
330
1F
100
AcDbEntity
  8
0
  6
Continuous
 62
     7
370
    15
100
AcDbLine
 10
8.1928117723
 20
9.0719084155
 30
0.0
 11
8.1744927306
 21
9.7124758956
 31
0.0
  0
SPLINE
  5
88
330
1F
100
AcDbEntity
  8
0
  6
Continuous
 62
     7
370
    15
100
AcDbSpline
210
0.0
220
0.0
230
1.0
 70
    12
 71
     3
 72
    39
 73
    35
 74
     0
 42
0.00000001
 43
0.00000001
 40
0.0
 40
0.0
 40
0.0
 40
0.0
 40
0.0445331248719186
 40
0.0822631199502704
 40
0.11318998891478
 40
0.1406520472626375
 40
0.1788283499238751
 40
0.2069771146348663
 40
0.2335017967231685
 40
0.2584033596981734
 40
0.2823439738952772
 40
0.3095270730498919
 40
0.3484866240678282
 40
0.3838505830812303
 40
0.4170827245328482
 40
0.4521049837779093
 40
0.487127290710849
 40
0.5221495336301422
 40
0.5640987830545958
 40
0.5959249016600299
 40
0.623695950641989
 40
0.6474121303063015
 40
0.6670737527910858
 40
0.6941514994406397
 40
0.7157818807517788
 40
0.7371200224456759
 40
0.7569885174358068
 40
0.7788042461033908
 40
0.8022225242974628
 40
0.8390906330959743
 40
0.8773525325639171
 40
0.9170086759075008
 40
0.9592626980220226
 40
1.0
 40
1.0
 40
1.0
 40
1.0
 10
3.31951841566667
 20
33.85339717759885
 30
0.0
 41
1.0
 10
3.427305946208659
 20
33.85228646623072
 30
0.0
 41
1.0
 10
3.626414779905404
 20
33.85023472198933
 30
0.0
 41
1.0
 10
3.900382546017367
 20
33.84780782091525
 30
0.0
 41
1.0
 10
4.133034119244331
 20
33.84610609027047
 30
0.0
 41
1.0
 10
4.366770411912805
 20
33.84511819518392
 30
0.0
 41
1.0
 10
4.593785543134728
 20
33.84537135847723
 30
0.0
 41
1.0
 10
4.818525354702071
 20
33.84699626983436
 30
0.0
 41
1.0
 10
5.011122189491433
 20
33.84956885591129
 30
0.0
 41
1.0
 10
5.193514063824905
 20
33.85323407637903
 30
0.0
 41
1.0
 10
5.37746170787199
 20
33.85848534891824
 30
0.0
 41
1.0
 10
5.595369557594891
 20
33.86635114077502
 30
0.0
 41
1.0
 10
5.840851516225973
 20
33.87668506617071
 30
0.0
 41
1.0
 10
6.100929607400777
 20
33.88838969327061
 30
0.0
 41
1.0
 10
6.351418854318517
 20
33.90108468316446
 30
0.0
 41
1.0
 10
6.601088327048876
 20
33.91360070543073
 30
0.0
 41
1.0
 10
6.855087105515916
 20
33.92630260382905
 30
0.0
 41
1.0
 10
7.125834034661072
 20
33.93979667495632
 30
0.0
 41
1.0
 10
7.388858041680642
 20
33.9528299825961
 30
0.0
 41
1.0
 10
7.634377708090144
 20
33.96446315074183
 30
0.0
 41
1.0
 10
7.835833579665088
 20
33.97357317207463
 30
0.0
 41
1.0
 10
8.007898859033748
 20
33.9808080205804
 30
0.0
 41
1.0
 10
8.178313065503351
 20
33.98735120889209
 30
0.0
 41
1.0
 10
8.343745425536774
 20
33.99193847982745
 30
0.0
 41
1.0
 10
8.513278529540598
 20
33.9944551891021
 30
0.0
 41
1.0
 10
8.665377907182505
 20
33.99507270523008
 30
0.0
 41
1.0
 10
8.817924344226327
 20
33.99444802485402
 30
0.0
 41
1.0
 10
8.975499855070666
 20
33.99296685949741
 30
0.0
 41
1.0
 10
9.174209787214567
 20
33.9901294980328
 30
0.0
 41
1.0
 10
9.41270948134965
 20
33.98582480132551
 30
0.0
 41
1.0
 10
9.690486998533803
 20
33.97981593945303
 30
0.0
 41
1.0
 10
9.981274663965527
 20
33.97251417628193
 30
0.0
 41
1.0
 10
10.27802524955239
 20
33.96407356049622
 30
0.0
 41
1.0
 10
10.47883053335258
 20
33.95852236157832
 30
0.0
 41
1.0
 10
10.57739825201946
 20
33.95579748799506
 30
0.0
 41
1.0
  0
SPLINE
  5
89
330
1F
100
AcDbEntity
  8
0
  6
Continuous
 62
     7
370
    15
100
AcDbSpline
210
0.0
220
0.0
230
1.0
 70
    28
 71
     1
 72
     4
 73
     2
 74
     0
 42
0.00000001
 43
0.00000001
 40
0.0
 40
0.0
 40
1.0
 40
1.0
 10
3.466703168709177
 20
38.85158925139083
 30
0.0
 41
1.0
 10
3.31951841566667
 20
33.85339717759885
 30
0.0
 41
1.0
  0
SPLINE
  5
8A
330
1F
100
AcDbEntity
  8
0
  6
Continuous
 62
     7
370
    15
100
AcDbSpline
210
0.0
220
0.0
230
1.0
 70
    12
 71
     3
 72
    25
 73
    21
 74
     0
 42
0.00000001
 43
0.00000001
 40
0.0
 40
0.0
 40
0.0
 40
0.0
 40
0.055337813187385
 40
0.1187206677613831
 40
0.1852288032114659
 40
0.2478526491969022
 40
0.3065470341768955
 40
0.3613122401915534
 40
0.4015854467657788
 40
0.4394328529970543
 40
0.474854584493635
 40
0.5078505267007138
 40
0.5384206596891796
 40
0.5658679816660129
 40
0.6089011456841739
 40
0.6636632956595822
 40
0.7301541823936301
 40
0.8083739233799793
 40
0.8983225290780634
 40
0.9999999999999999
 40
0.9999999999999999
 40
0.9999999999999999
 40
0.9999999999999999
 10
7.792926205144822
 20
38.77090709010471
 30
0.0
 41
1.0
 10
7.713127066996917
 20
38.77250549469105
 30
0.0
 41
1.0
 10
7.541927548584036
 20
38.77593468079205
 30
0.0
 41
1.0
 10
7.274818726852692
 20
38.78117642149307
 30
0.0
 41
1.0
 10
6.997202389600494
 20
38.78658786773671
 30
0.0
 41
1.0
 10
6.726346876996786
 20
38.79185781309283
 30
0.0
 41
1.0
 10
6.472424803472864
 20
38.79677334812806
 30
0.0
 41
1.0
 10
6.250733263788192
 20
38.80104804280906
 30
0.0
 41
1.0
 10
6.05910388251339
 20
38.8047230645198
 30
0.0
 41
1.0
 10
5.895368721632422
 20
38.8078506688305
 30
0.0
 41
1.0
 10
5.742127428785941
 20
38.81075667260608
 30
0.0
 41
1.0
 10
5.599380249438034
 20
38.81345326151595
 30
0.0
 41
1.0
 10
5.468132281646207
 20
38.81590965897685
 30
0.0
 41
1.0
 10
5.322409530478112
 20
38.8186168018234
 30
0.0
 41
1.0
 10
5.14179894464606
 20
38.82191306665516
 30
0.0
 41
1.0
 10
4.904883023418695
 20
38.82617167859013
 30
0.0
 41
1.0
 10
4.617224133983375
 20
38.83130525005631
 30
0.0
 41
1.0
 10
4.278822191427981
 20
38.83729897128814
 30
0.0
 41
1.0
 10
3.889677187060691
 20
38.84416258524995
 30
0.0
 41
1.0
 10
3.613332586635049
 20
38.84901470145131
 30
0.0
 41
1.0
 10
3.466703168709177
 20
38.85158925139083
 30
0.0
 41
1.0
  0
ELLIPSE
  5
8B
330
1F
100
AcDbEntity
  8
0
  6
Continuous
 62
     7
370
    15
100
AcDbEllipse
 10
10.7507500503
 20
39.272290012
 30
0.0
 11
-2.428774400094282
 21
1.761042904716312
 31
-3.330669073875470E-15
210
-1.420172539433255E-15
220
-6.735192725813490E-17
230
1.0
 40
0.9999879336
 41
0.7952775496183233
 42
1.446172724249395
  0
ELLIPSE
  5
8C
330
1F
100
AcDbEntity
  8
0
  6
Continuous
 62
     7
370
    15
100
AcDbEllipse
 10
15.532365635
 20
44.3846447208
 30
0.0
 11
-8.095914666750955
 21
5.870143015554286
 31
-1.115774139748282E-14
210
-1.431183655748197E-15
220
-7.308158434411600E-17
230
0.9999999999999998
 40
0.9999879336
 41
1.44617272425331
 42
1.647641755853083
  0
LINE
  5
8D
330
1F
100
AcDbEntity
  8
0
  6
Continuous
 62
     7
370
    15
100
AcDbLine
 10
10.3011389367
 20
35.8620690133
 30
0.0
 11
10.6233800675
 21
35.6642754582
 31
0.0
  0
LINE
  5
8E
330
1F
100
AcDbEntity
  8
0
  6
Continuous
 62
     7
370
    15
100
AcDbLine
 10
10.6233800675
 20
35.6642754582
 30
0.0
 11
10.5973581814
 21
34.6974200674
 31
0.0
  0
LINE
  5
8F
330
1F
100
AcDbEntity
  8
0
  6
Continuous
 62
     7
370
    15
100
AcDbLine
 10
10.5973581814
 20
34.6974200674
 30
0.0
 11
11.0397036981
 21
34.6855108716
 31
0.0
  0
LINE
  5
90
330
1F
100
AcDbEntity
  8
0
  6
Continuous
 62
     7
370
    15
100
AcDbLine
 10
11.0397036981
 20
34.6855108716
 30
0.0
 11
11.0262515868
 21
34.1856907256
 31
0.0
  0
LINE
  5
91
330
1F
100
AcDbEntity
  8
0
  6
Continuous
 62
     7
370
    15
100
AcDbLine
 10
11.0262515868
 20
34.1856907256
 30
0.0
 11
10.5839060702
 21
34.1975999213
 31
0.0
  0
LINE
  5
92
330
1F
100
AcDbEntity
  8
0
  6
Continuous
 62
     7
370
    15
100
AcDbLine
 10
10.5839060702
 20
34.1975999213
 30
0.0
 11
10.577398252
 21
33.955797488
 31
0.0
  0
ELLIPSE
  5
93
330
1F
100
AcDbEntity
  8
0
  6
Continuous
 62
     7
370
    15
100
AcDbEllipse
 10
15.5331212866
 20
44.3840968169
 30
0.0
 11
-8.095914666750957
 21
5.870143015554292
 31
-1.115774139748282E-14
210
-1.431183655748197E-15
220
-7.308158434411640E-17
230
1.0
 40
0.9999879336
 41
1.446172724253311
 42
1.57079632679508
  0
ELLIPSE
  5
94
330
1F
100
AcDbEntity
  8
0
  6
Continuous
 62
     7
370
    15
100
AcDbEllipse
 10
10.7515057019
 20
39.2717421082
 30
0.0
 11
-2.428774400094284
 21
1.761042904716313
 31
-3.358424649491099E-15
210
-1.438524399890396E-15
220
-7.690135573130934E-17
230
1.0
 40
0.9999879336
 41
0.7950968412724165
 42
1.446172724249394
  0
ARC
  5
95
330
1F
100
AcDbEntity
  8
0
  6
Continuous
 62
     7
370
    15
100
AcDbCircle
 10
7.7910269337
 20
38.6443520601
 30
0.0
 40
0.1265692807927937
100
AcDbArc
 50
88.8389948077
 51
89.1401995495
  0
LINE
  5
96
330
1F
100
AcDbEntity
  8
0
  6
Continuous
 62
     7
370
    15
100
AcDbLine
 10
10.6241356854
 20
35.6637263445
 30
0.0
 11
10.5981281725
 21
34.6973989476
 31
0.0
  0
LINE
  5
97
330
1F
100
AcDbEntity
  8
0
  6
Continuous
 62
     7
370
    15
100
AcDbLine
 10
10.6233800675
 20
35.6642754582
 30
0.0
 11
10.6241356854
 21
35.6637263445
 31
0.0
  0
LINE
  5
98
330
1F
100
AcDbEntity
  8
0
  6
Continuous
 62
     7
370
    15
100
AcDbLine
 10
11.0270073514
 20
34.1851416119
 30
0.0
 11
10.5846616881
 21
34.1970508077
 31
0.0
  0
LINE
  5
99
330
1F
100
AcDbEntity
  8
0
  6
Continuous
 62
     7
370
    15
100
AcDbLine
 10
10.5846616881
 20
34.1970508077
 30
0.0
 11
10.5839060702
 21
34.1975999213
 31
0.0
  0
LINE
  5
9A
330
1F
100
AcDbEntity
  8
0
  6
Continuous
 62
     7
370
    15
100
AcDbLine
 10
11.0270073514
 20
34.1851416119
 30
0.0
 11
11.0262515868
 21
34.1856907256
 31
0.0
  0
LINE
  5
9B
330
1F
100
AcDbEntity
  8
0
  6
Continuous
 62
     7
370
    15
100
AcDbLine
 10
11.0404594627
 20
34.684961758
 30
0.0
 11
11.0270073514
 21
34.1851416119
 31
0.0
  0
LINE
  5
9C
330
1F
100
AcDbEntity
  8
0
  6
Continuous
 62
     7
370
    15
100
AcDbLine
 10
11.0404594627
 20
34.684961758
 30
0.0
 11
11.0397036981
 21
34.6855108716
 31
0.0
  0
LINE
  5
9D
330
1F
100
AcDbEntity
  8
0
  6
Continuous
 62
     7
370
    15
100
AcDbLine
 10
10.5846616881
 20
34.1970508077
 30
0.0
 11
10.5781682431
 21
33.9557763682
 31
0.0
  0
LWPOLYLINE
  5
9E
330
1F
100
AcDbEntity
  8
0
  6
Continuous
 62
     7
370
    15
100
AcDbPolyline
 90
        3
 70
   128
 43
0.0
 10
10.5781682431
 20
33.9557763682
 10
10.5777831009
 20
33.9557857548
 10
10.577398252
 20
33.955797488
  0
ARC
  5
9F
330
1F
100
AcDbEntity
  8
0
  6
Continuous
 62
     7
370
    15
100
AcDbCircle
 10
9.8792795091
 20
55.4174343786
 30
0.0
 40
2.44469006391873
100
AcDbArc
 50
271.176258775
 51
334.0930615779
  0
LINE
  5
A0
330
1F
100
AcDbEntity
  8
0
  6
Continuous
 62
     7
370
    15
100
AcDbLine
 10
12.0782901429
 20
54.3493230823
 30
0.0
 11
12.4562106478
 21
52.2546862577
 31
0.0
  0
LINE
  5
A1
330
1F
100
AcDbEntity
  8
0
  6
Continuous
 62
     7
370
    15
100
AcDbLine
 10
12.4562106478
 20
52.2546862577
 30
0.0
 11
12.5150151618
 21
51.9287145567
 31
0.0
  0
SPLINE
  5
A2
330
1F
100
AcDbEntity
  8
0
  6
Continuous
 62
     7
370
    15
100
AcDbSpline
210
0.0
220
0.0
230
1.0
 70
    12
 71
     3
 72
    26
 73
    22
 74
     0
 42
0.00000001
 43
0.00000001
 40
0.0
 40
0.0
 40
0.0
 40
0.0
 40
0.0381545621800318
 40
0.054414277031892
 40
0.0709646537973689
 40
0.0999513161343789
 40
0.1333617344589246
 40
0.1601299148129124
 40
0.1896953241794889
 40
0.2221829498704441
 40
0.2576875856345695
 40
0.3188337185424637
 40
0.3820407312228948
 40
0.4417862740751992
 40
0.5058439095607061
 40
0.5758933267508679
 40
0.6508359277590875
 40
0.7306979439291329
 40
0.8155010416985153
 40
0.9052633096037648
 40
1.0
 40
1.0
 40
1.0
 40
1.0
 10
12.51501516183691
 20
51.92871455665672
 30
0.0
 41
1.0
 10
12.49009861697814
 20
51.9240134443389
 30
0.0
 41
1.0
 10
12.45456378976074
 20
51.91730893474937
 30
0.0
 41
1.0
 10
12.41314545709848
 20
51.89498332128465
 30
0.0
 41
1.0
 10
12.38020601872634
 20
51.8709222660607
 30
0.0
 41
1.0
 10
12.34424279946307
 20
51.8328605490134
 30
0.0
 41
1.0
 10
12.31109470577528
 20
51.78419325881002
 30
0.0
 41
1.0
 10
12.28290352795134
 20
51.73218351351059
 30
0.0
 41
1.0
 10
12.25868101566561
 20
51.67889254442017
 30
0.0
 41
1.0
 10
12.23550653626716
 20
51.61893510933358
 30
0.0
 41
1.0
 10
12.20868837387246
 20
51.53819542506862
 30
0.0
 41
1.0
 10
12.18084461692199
 20
51.43659927514451
 30
0.0
 41
1.0
 10
12.15422332016227
 20
51.31828217306975
 30
0.0
 41
1.0
 10
12.13124675307154
 20
51.19726257827929
 30
0.0
 41
1.0
 10
12.11079676159813
 20
51.07122734740077
 30
0.0
 41
1.0
 10
12.09189866724848
 20
50.93484053797582
 30
0.0
 41
1.0
 10
12.07446550335267
 20
50.78777397776125
 30
0.0
 41
1.0
 10
12.05861982263111
 20
50.63075939607964
 30
0.0
 41
1.0
 10
12.04439472097572
 20
50.46379436683034
 30
0.0
 41
1.0
 10
12.03162965973134
 20
50.28688608594999
 30
0.0
 41
1.0
 10
12.02472312192209
 20
50.1655708039455
 30
0.0
 41
1.0
 10
12.02117674670042
 20
50.10327772425878
 30
0.0
 41
1.0
  0
LINE
  5
A3
330
1F
100
AcDbEntity
  8
0
  6
Continuous
 62
     7
370
    15
100
AcDbLine
 10
12.0211767467
 20
50.1032777243
 30
0.0
 11
11.7129641205
 21
50.0516938935
 31
0.0
  0
LINE
  5
A4
330
1F
100
AcDbEntity
  8
0
  6
Continuous
 62
     7
370
    15
100
AcDbLine
 10
11.7129641205
 20
50.0516938935
 30
0.0
 11
11.743916003
 21
49.8667646165
 31
0.0
  0
LINE
  5
A5
330
1F
100
AcDbEntity
  8
0
  6
Continuous
 62
     7
370
    15
100
AcDbLine
 10
11.743916003
 20
49.8667646165
 30
0.0
 11
12.0108516793
 21
49.9114446337
 31
0.0
  0
SPLINE
  5
A6
330
1F
100
AcDbEntity
  8
0
  6
Continuous
 62
     7
370
    15
100
AcDbSpline
210
0.0
220
0.0
230
1.0
 70
    12
 71
     3
 72
    20
 73
    16
 74
     0
 42
0.00000001
 43
0.00000001
 40
0.0
 40
0.0
 40
0.0
 40
0.0
 40
0.0494304289195369
 40
0.1011504869539153
 40
0.1550465783951584
 40
0.2110060877150987
 40
0.2689164439560784
 40
0.3475170346147397
 40
0.4290273688523635
 40
0.5132057879900516
 40
0.6060892028654927
 40
0.701480413105794
 40
0.7991043470095015
 40
0.8986956804262568
 40
0.9999999999999999
 40
0.9999999999999999
 40
0.9999999999999999
 40
0.9999999999999999
 10
12.01085167930981
 20
49.91144463366435
 30
0.0
 41
1.0
 10
11.99628469716301
 20
49.63934839796723
 30
0.0
 41
1.0
 10
11.96647598682395
 20
49.08255236482152
 30
0.0
 41
1.0
 10
11.92297624022118
 20
48.22896259300489
 30
0.0
 41
1.0
 10
11.88068561972995
 20
47.33927714988126
 30
0.0
 41
1.0
 10
11.84100756161472
 20
46.41531278290945
 30
0.0
 41
1.0
 10
11.80135874007842
 20
45.35505240141606
 30
0.0
 41
1.0
 10
11.76545984717339
 20
44.15372628608188
 30
0.0
 41
1.0
 10
11.73863987222969
 20
42.80732018368387
 30
0.0
 41
1.0
 10
11.7264485339171
 20
41.38195542974807
 30
0.0
 41
1.0
 10
11.73350687083149
 20
39.88002148621534
 30
0.0
 41
1.0
 10
11.76476219728783
 20
38.30423599545034
 30
0.0
 41
1.0
 10
11.82454823560232
 20
36.69228958346885
 30
0.0
 41
1.0
 10
11.91334413572248
 20
35.04892960804423
 30
0.0
 41
1.0
 10
12.00177434175061
 20
33.94498575023272
 30
0.0
 41
1.0
 10
12.04636645570675
 20
33.3883072970235
 30
0.0
 41
1.0
  0
LINE
  5
A7
330
1F
100
AcDbEntity
  8
0
  6
Continuous
 62
     7
370
    15
100
AcDbLine
 10
1.7077395951
 20
49.8793801507
 30
0.0
 11
1.4409172908
 21
49.9247313068
 31
0.0
  0
LINE
  5
A8
330
1F
100
AcDbEntity
  8
0
  6
Continuous
 62
     7
370
    15
100
AcDbLine
 10
1.7391564055
 20
50.064229642
 30
0.0
 11
1.7077395951
 21
49.8793801507
 31
0.0
  0
LINE
  5
A9
330
1F
100
AcDbEntity
  8
0
  6
Continuous
 62
     7
370
    15
100
AcDbLine
 10
1.4310743111
 20
50.1165925571
 30
0.0
 11
1.7391564055
 21
50.064229642
 31
0.0
  0
SPLINE
  5
AA
330
1F
100
AcDbEntity
  8
0
  6
Continuous
 62
     7
370
    15
100
AcDbSpline
210
0.0
220
0.0
230
1.0
 70
    12
 71
     3
 72
    26
 73
    22
 74
     0
 42
0.00000001
 43
0.00000001
 40
0.0
 40
0.0
 40
0.0
 40
0.0
 40
0.0381551389714777
 40
0.0544142430966065
 40
0.0709646595442781
 40
0.0999508821211577
 40
0.1333627889411891
 40
0.1601298439105528
 40
0.1896955464802816
 40
0.2221844449052212
 40
0.2576871254207268
 40
0.3188327964588142
 40
0.3820406740043644
 40
0.4417868366283916
 40
0.5058449528453569
 40
0.575894199038494
 40
0.6508386958275889
 40
0.7306998898248731
 40
0.8155018685214132
 40
0.9052650432495042
 40
1.0
 40
1.0
 40
1.0
 40
1.0
 10
0.9418257763082699
 20
51.94325902863774
 30
0.0
 41
1.0
 10
0.9667307626292259
 20
51.93849536049025
 30
0.0
 41
1.0
 10
1.002248546511469
 20
51.93170174359886
 30
0.0
 41
1.0
 10
1.043610768473289
 20
51.90927261198852
 30
0.0
 41
1.0
 10
1.076489499023731
 20
51.88513009082028
 30
0.0
 41
1.0
 10
1.112359512869206
 20
51.84697934584401
 30
0.0
 41
1.0
 10
1.145380214829565
 20
51.79822566270018
 30
0.0
 41
1.0
 10
1.173443264750423
 20
51.74614657311481
 30
0.0
 41
1.0
 10
1.197532957551188
 20
51.69279510424399
 30
0.0
 41
1.0
 10
1.220553999000251
 20
51.63277905521446
 30
0.0
 41
1.0
 10
1.247171064422119
 20
51.55197389303078
 30
0.0
 41
1.0
 10
1.274757887714334
 20
51.45030892612708
 30
0.0
 41
1.0
 10
1.301083161299966
 20
51.33192524595334
 30
0.0
 41
1.0
 10
1.323755001519085
 20
51.21084713511819
 30
0.0
 41
1.0
 10
1.343887006786187
 20
51.08476041513089
 30
0.0
 41
1.0
 10
1.362442969100221
 20
50.94832549957717
 30
0.0
 41
1.0
 10
1.379506491260696
 20
50.8012153329365
 30
0.0
 41
1.0
 10
1.394957010183588
 20
50.64416177969605
 30
0.0
 41
1.0
 10
1.408763232767909
 20
50.47716266059207
 30
0.0
 41
1.0
 10
1.421081613445813
 20
50.30022441516786
 30
0.0
 41
1.0
 10
1.42768410480389
 20
50.17889303962698
 30
0.0
 41
1.0
 10
1.431074311134113
 20
50.11659255711137
 30
0.0
 41
1.0
  0
LINE
  5
AB
330
1F
100
AcDbEntity
  8
0
  6
Continuous
 62
     7
370
    15
100
AcDbLine
 10
1.0014503675
 20
52.269085238
 30
0.0
 11
0.9418257763
 21
51.9432590286
 31
0.0
  0
LINE
  5
AC
330
1F
100
AcDbEntity
  8
0
  6
Continuous
 62
     7
370
    15
100
AcDbLine
 10
1.3846353558
 20
54.3627650159
 30
0.0
 11
1.0014503675
 21
52.269085238
 31
0.0
  0
ARC
  5
AD
330
1F
100
AcDbEntity
  8
0
  6
Continuous
 62
     7
370
    15
100
AcDbCircle
 10
3.5863242699
 20
55.4253446289
 30
0.0
 40
2.444690063918741
100
AcDbArc
 50
205.7628968066
 51
268.6796996095
  0
SPLINE
  5
AE
330
1F
100
AcDbEntity
  8
0
  6
Continuous
 62
     7
370
    15
100
AcDbSpline
210
0.0
220
0.0
230
1.0
 70
    12
 71
     3
 72
    20
 73
    16
 74
     0
 42
0.00000001
 43
0.00000001
 40
0.0
 40
0.0
 40
0.0
 40
0.0
 40
0.049430517478997
 40
0.1011503776498883
 40
0.1550467548784162
 40
0.2110060960693407
 40
0.2689166010385659
 40
0.3475169653004997
 40
0.4290271978237352
 40
0.51320580927412
 40
0.6060892319211463
 40
0.7014804563435233
 40
0.7991043959945056
 40
0.8986957206121757
 40
0.9999999999999999
 40
0.9999999999999999
 40
0.9999999999999999
 40
0.9999999999999999
 10
1.440917290760506
 20
49.92473130684223
 30
0.0
 41
1.0
 10
1.454800027991702
 20
49.65259880211774
 30
0.0
 41
1.0
 10
1.483208472518834
 20
49.09573015037058
 30
0.0
 41
1.0
 10
1.524562028650791
 20
48.24203270360163
 30
0.0
 41
1.0
 10
1.564616477526023
 20
47.35224418828806
 30
0.0
 41
1.0
 10
1.60197127447538
 20
46.42818146889411
 30
0.0
 41
1.0
 10
1.638953237106179
 20
45.36782603298226
 30
0.0
 41
1.0
 10
1.671833439006707
 20
44.16641445228839
 30
0.0
 41
1.0
 10
1.695268593126756
 20
42.8199458632542
 30
0.0
 41
1.0
 10
1.703875011258134
 20
41.39455436559894
 30
0.0
 41
1.0
 10
1.693042922934707
 20
39.89264165115776
 30
0.0
 41
1.0
 10
1.657824029538821
 20
38.31693954539077
 30
0.0
 41
1.0
 10
1.59398735805678
 20
36.70514834535498
 30
0.0
 41
1.0
 10
1.501059119000287
 20
35.06201703014986
 30
0.0
 41
1.0
 10
1.409854284612561
 20
33.95829917290435
 30
0.0
 41
1.0
 10
1.363863034231186
 20
33.40173476857487
 30
0.0
 41
1.0
  0
LINE
  5
AF
330
1F
100
AcDbEntity
  8
0
  6
Continuous
 62
     7
370
    15
100
AcDbLine
 10
10.0251007922
 20
39.3485230308
 30
0.0
 11
10.0740716398
 21
39.3519045384
 31
0.0
  0
LINE
  5
B0
330
1F
100
AcDbEntity
  8
0
  6
Continuous
 62
     7
370
    15
100
AcDbLine
 10
9.4944408158
 20
47.7463411118
 30
0.0
 11
9.4454702615
 21
47.7429619508
 31
0.0
  0
LINE
  5
B1
330
1F
100
AcDbEntity
  8
0
  6
Continuous
 62
     7
370
    15
100
AcDbLine
 10
6.7128390024
 20
39.54018951
 30
0.0
 11
10.0251007922
 21
39.3485230308
 31
0.0
  0
LINE
  5
B2
330
1F
100
AcDbEntity
  8
0
  6
Continuous
 62
     7
370
    15
100
AcDbLine
 10
6.7128390024
 20
39.54018951
 30
0.0
 11
3.4001067114
 21
39.3568512546
 31
0.0
  0
SPLINE
  5
B3
330
1F
100
AcDbEntity
  8
0
  6
Continuous
 62
     7
370
    15
100
AcDbSpline
210
0.0
220
0.0
230
1.0
 70
    28
 71
     1
 72
     4
 73
     2
 74
     0
 42
0.00000001
 43
0.00000001
 40
0.0
 40
0.0
 40
1.0
 40
1.0
 10
9.445470261481534
 20
47.74296195082801
 30
0.0
 41
1.0
 10
9.168220957622482
 20
51.78156617652737
 30
0.0
 41
1.0
  0
SPLINE
  5
B4
330
1F
100
AcDbEntity
  8
0
  6
Continuous
 62
     7
370
    15
100
AcDbSpline
210
0.0
220
0.0
230
1.0
 70
    28
 71
     1
 72
     4
 73
     2
 74
     0
 42
0.00000001
 43
0.00000001
 40
0.0
 40
0.0
 40
1.0
 40
1.0
 10
4.000838811661983
 20
47.74980475177939
 30
0.0
 41
1.0
 10
4.288239971579259
 20
51.7877002923322
 30
0.0
 41
1.0
  0
LINE
  5
B5
330
1F
100
AcDbEntity
  8
0
  6
Continuous
 62
     7
370
    15
100
AcDbLine
 10
4.2882399716
 20
51.7877002923
 30
0.0
 11
4.3708196054
 21
52.9667534887
 31
0.0
  0
ARC
  5
B6
330
1F
100
AcDbEntity
  8
0
  6
Continuous
 62
     7
370
    15
100
AcDbCircle
 10
3.5958545134
 20
57.9063313154
 30
0.0
 40
5.0
100
AcDbArc
 50
278.916391344
 51
308.8317072293
  0
ARC
  5
B7
330
1F
100
AcDbEntity
  8
0
  6
Continuous
 62
     7
370
    15
100
AcDbCircle
 10
9.8759864909
 20
57.8984371839
 30
0.0
 40
5.000000000000004
100
AcDbArc
 50
231.0242511552
 51
260.9395670405
  0
LINE
  5
B8
330
1F
100
AcDbEntity
  8
0
  6
Continuous
 62
     7
370
    15
100
AcDbLine
 10
9.1682209576
 20
51.7815661765
 30
0.0
 11
9.08860576
 21
52.9608232273
 31
0.0
  0
LINE
  5
B9
330
1F
100
AcDbEntity
  8
0
  6
Continuous
 62
     7
370
    15
100
AcDbLine
 10
3.4001067114
 20
39.3568512546
 30
0.0
 11
3.351144077
 21
39.3603571341
 31
0.0
  0
LINE
  5
BA
330
1F
100
AcDbEntity
  8
0
  6
Continuous
 62
     7
370
    15
100
AcDbLine
 10
3.9518767639
 20
47.753305938
 30
0.0
 11
4.0008388117
 21
47.7498047518
 31
0.0
  0
LINE
  5
BB
330
1F
100
AcDbEntity
  8
0
  6
Continuous
 62
     7
370
    15
100
AcDbLine
 10
9.8849172383
 20
46.0887077809
 30
0.0
 11
9.8659393775
 21
46.8384685063
 31
0.0
  0
LINE
  5
BC
330
1F
100
AcDbEntity
  8
0
  6
Continuous
 62
     7
370
    15
100
AcDbLine
 10
10.0098772614
 20
46.091871051
 30
0.0
 11
9.8849172383
 21
46.0887077809
 31
0.0
  0
LINE
  5
BD
330
1F
100
AcDbEntity
  8
0
  6
Continuous
 62
     7
370
    15
100
AcDbLine
 10
9.9908994006
 20
46.8416317764
 30
0.0
 11
10.0098772614
 21
46.091871051
 31
0.0
  0
LINE
  5
BE
330
1F
100
AcDbEntity
  8
0
  6
Continuous
 62
     7
370
    15
100
AcDbLine
 10
9.8659393775
 20
46.8384685063
 30
0.0
 11
9.9908994006
 21
46.8416317764
 31
0.0
  0
LINE
  5
BF
330
1F
100
AcDbEntity
  8
0
  6
Continuous
 62
     7
370
    15
100
AcDbLine
 10
9.4944408158
 20
47.7463411118
 30
0.0
 11
9.5402580732
 21
47.7495043819
 31
0.0
  0
LINE
  5
C0
330
1F
100
AcDbEntity
  8
0
  6
Continuous
 62
     7
370
    15
100
AcDbLine
 10
9.5402580732
 20
47.7495043819
 30
0.0
 11
9.5359528696
 21
47.811854595
 31
0.0
  0
LINE
  5
C1
330
1F
100
AcDbEntity
  8
0
  6
Continuous
 62
     7
370
    15
100
AcDbLine
 10
9.5359528696
 20
47.811854595
 30
0.0
 11
9.4832476384
 21
49.2570701131
 31
0.0
  0
LINE
  5
C2
330
1F
100
AcDbEntity
  8
0
  6
Continuous
 62
     7
370
    15
100
AcDbLine
 10
9.4832476384
 20
49.2570701131
 30
0.0
 11
9.6020788257
 21
51.3256234969
 31
0.0
  0
LINE
  5
C3
330
1F
100
AcDbEntity
  8
0
  6
Continuous
 62
     7
370
    15
100
AcDbLine
 10
9.6020788257
 20
51.3256234969
 30
0.0
 11
9.828184587
 21
52.9643616861
 31
0.0
  0
LINE
  5
C4
330
1F
100
AcDbEntity
  8
0
  6
Continuous
 62
     7
370
    15
100
AcDbLine
 10
9.828184587
 20
52.9643616861
 30
0.0
 11
9.8806613141
 21
52.9679848976
 31
0.0
  0
LINE
  5
C5
330
1F
100
AcDbEntity
  8
0
  6
Continuous
 62
     7
370
    15
100
AcDbLine
 10
12.1495003843
 20
31.9773550631
 30
0.0
 11
12.1183246911
 21
31.975200848
 31
0.0
  0
SPLINE
  5
C6
330
1F
100
AcDbEntity
  8
0
  6
Continuous
 62
     7
370
    15
100
AcDbSpline
210
0.0
220
0.0
230
1.0
 70
    12
 71
     3
 72
    12
 73
     8
 74
     0
 42
0.00000001
 43
0.00000001
 40
0.0
 40
0.0
 40
0.0
 40
0.0
 40
0.1865820729491009
 40
0.3732819395482833
 40
0.560029676108921
 40
0.7800881332228105
 40
1.0
 40
1.0
 40
1.0
 40
1.0
 10
12.11832469110574
 20
31.97520084801645
 30
0.0
 41
1.0
 10
12.02725728486989
 20
32.44178090352668
 30
0.0
 41
1.0
 10
11.84506497940321
 20
33.37523557750769
 30
0.0
 41
1.0
 10
11.52334411043595
 20
34.76557997341324
 30
0.0
 41
1.0
 10
11.14417439998192
 20
36.22943759797892
 30
0.0
 41
1.0
 10
10.70040659495316
 20
37.76369369449168
 30
0.0
 41
1.0
 10
10.34516208640156
 20
38.82692430833853
 30
0.0
 41
1.0
 10
10.16759901272191
 20
39.35836249043646
 30
0.0
 41
1.0
  0
LINE
  5
C7
330
1F
100
AcDbEntity
  8
0
  6
Continuous
 62
     7
370
    15
100
AcDbLine
 10
10.1675990127
 20
39.3583624904
 30
0.0
 11
10.0740716398
 21
39.3519045384
 31
0.0
  0
LINE
  5
C8
330
1F
100
AcDbEntity
  8
0
  6
Continuous
 62
     7
370
    15
100
AcDbLine
 10
9.9062889647
 20
50.1843071882
 30
0.0
 11
9.9339652317
 21
49.0909092592
 31
0.0
  0
LINE
  5
C9
330
1F
100
AcDbEntity
  8
0
  6
Continuous
 62
     7
370
    15
100
AcDbLine
 10
9.7500890092
 20
50.1803554472
 30
0.0
 11
9.9062889647
 21
50.1843071882
 31
0.0
  0
LINE
  5
CA
330
1F
100
AcDbEntity
  8
0
  6
Continuous
 62
     7
370
    15
100
AcDbLine
 10
9.7777652761
 20
49.0869575182
 30
0.0
 11
9.7500890092
 21
50.1803554472
 31
0.0
  0
LINE
  5
CB
330
1F
100
AcDbEntity
  8
0
  6
Continuous
 62
     7
370
    15
100
AcDbLine
 10
9.9339652317
 20
49.0909092592
 30
0.0
 11
9.7777652761
 21
49.0869575182
 31
0.0
  0
LINE
  5
CC
330
1F
100
AcDbEntity
  8
0
  6
Continuous
 62
     7
370
    15
100
AcDbLine
 10
3.5299948226
 20
52.98130361
 30
0.0
 11
3.5787845406
 21
52.9759071527
 31
0.0
  0
LINE
  5
CD
330
1F
100
AcDbEntity
  8
0
  6
Continuous
 62
     7
370
    15
100
AcDbLine
 10
1.4126531906
 20
33.3963374976
 30
0.0
 11
1.3638630342
 21
33.4017347686
 31
0.0
  0
LINE
  5
CE
330
1F
100
AcDbEntity
  8
0
  6
Continuous
 62
     7
370
    15
100
AcDbLine
 10
9.9294644647
 20
52.973259471
 30
0.0
 11
9.8806613141
 21
52.9679848976
 31
0.0
  0
LINE
  5
CF
330
1F
100
AcDbEntity
  8
0
  6
Continuous
 62
     7
370
    15
100
AcDbLine
 10
11.9975632462
 20
33.3830320513
 30
0.0
 11
12.0463664557
 21
33.388307297
 31
0.0
  0
LINE
  5
D0
330
1F
100
AcDbEntity
  8
0
  6
Continuous
 62
     7
370
    15
100
AcDbLine
 10
3.4531454587
 20
46.8498497081
 30
0.0
 11
3.4322826597
 21
46.1001359156
 31
0.0
  0
LINE
  5
D1
330
1F
100
AcDbEntity
  8
0
  6
Continuous
 62
     7
370
    15
100
AcDbLine
 10
3.4322826597
 20
46.1001359156
 30
0.0
 11
3.5572341762
 21
46.096662889
 31
0.0
  0
LINE
  5
D2
330
1F
100
AcDbEntity
  8
0
  6
Continuous
 62
     7
370
    15
100
AcDbLine
 10
3.5572341762
 20
46.096662889
 30
0.0
 11
3.5780969752
 21
46.8463719883
 31
0.0
  0
LINE
  5
D3
330
1F
100
AcDbEntity
  8
0
  6
Continuous
 62
     7
370
    15
100
AcDbLine
 10
3.5780969752
 20
46.8463719883
 30
0.0
 11
3.4531454587
 21
46.8498497081
 31
0.0
  0
SPLINE
  5
D4
330
1F
100
AcDbEntity
  8
0
  6
Continuous
 62
     7
370
    15
100
AcDbSpline
210
0.0
220
0.0
230
1.0
 70
    12
 71
     3
 72
    12
 73
     8
 74
     0
 42
0.00000001
 43
0.00000001
 40
0.0
 40
0.0
 40
0.0
 40
0.0
 40
0.1865818538709142
 40
0.3732818381951587
 40
0.5600296489377253
 40
0.780087819709124
 40
0.9999999999999999
 40
0.9999999999999999
 40
0.9999999999999999
 40
0.9999999999999999
 10
1.288352866531085
 20
31.98881605073247
 30
0.0
 41
1.0
 10
1.380593103749644
 20
32.45516504311606
 30
0.0
 41
1.0
 10
1.565131978190906
 20
33.3881582871313
 30
0.0
 41
1.0
 10
1.890346227924187
 20
34.77768946364224
 30
0.0
 41
1.0
 10
2.273193723699205
 20
36.24058916716388
 30
0.0
 41
1.0
 10
2.72082029894874
 20
37.77372397283868
 30
0.0
 41
1.0
 10
3.078734912088571
 20
38.83605865857761
 30
0.0
 41
1.0
 10
3.257632837240818
 20
39.3670497500805
 30
0.0
 41
1.0
  0
LINE
  5
D5
330
1F
100
AcDbEntity
  8
0
  6
Continuous
 62
     7
370
    15
100
AcDbLine
 10
1.2571824533
 20
31.9910453583
 30
0.0
 11
1.2883528665
 21
31.9888160507
 31
0.0
  0
LINE
  5
D6
330
1F
100
AcDbEntity
  8
0
  6
Continuous
 62
     7
370
    15
100
AcDbLine
 10
3.6312518812
 20
52.9721525294
 30
0.0
 11
3.5787845406
 21
52.9759071527
 31
0.0
  0
LINE
  5
D7
330
1F
100
AcDbEntity
  8
0
  6
Continuous
 62
     7
370
    15
100
AcDbLine
 10
3.8532375301
 20
51.3328511468
 30
0.0
 11
3.6312518812
 21
52.9721525294
 31
0.0
  0
LINE
  5
D8
330
1F
100
AcDbEntity
  8
0
  6
Continuous
 62
     7
370
    15
100
AcDbLine
 10
3.9668676841
 20
49.2640020863
 30
0.0
 11
3.8532375301
 21
51.3328511468
 31
0.0
  0
LINE
  5
D9
330
1F
100
AcDbEntity
  8
0
  6
Continuous
 62
     7
370
    15
100
AcDbLine
 10
3.9105295616
 20
47.8189273666
 30
0.0
 11
3.9668676841
 21
49.2640020863
 31
0.0
  0
LINE
  5
DA
330
1F
100
AcDbEntity
  8
0
  6
Continuous
 62
     7
370
    15
100
AcDbLine
 10
3.9060674265
 20
47.7565865401
 30
0.0
 11
3.9105295616
 21
47.8189273666
 31
0.0
  0
LINE
  5
DB
330
1F
100
AcDbEntity
  8
0
  6
Continuous
 62
     7
370
    15
100
AcDbLine
 10
3.9518767639
 20
47.753305938
 30
0.0
 11
3.9060674265
 21
47.7565865401
 31
0.0
  0
LINE
  5
DC
330
1F
100
AcDbEntity
  8
0
  6
Continuous
 62
     7
370
    15
100
AcDbLine
 10
3.2576328372
 20
39.3670497501
 30
0.0
 11
3.351144077
 21
39.3603571341
 31
0.0
  0
LINE
  5
DD
330
1F
100
AcDbEntity
  8
0
  6
Continuous
 62
     7
370
    15
100
AcDbLine
 10
3.6719232513
 20
49.0946310296
 30
0.0
 11
3.7023486065
 21
50.1879585594
 31
0.0
  0
LINE
  5
DE
330
1F
100
AcDbEntity
  8
0
  6
Continuous
 62
     7
370
    15
100
AcDbLine
 10
3.7023486065
 20
50.1879585594
 30
0.0
 11
3.5461592108
 21
50.1923045358
 31
0.0
  0
LINE
  5
DF
330
1F
100
AcDbEntity
  8
0
  6
Continuous
 62
     7
370
    15
100
AcDbLine
 10
3.5461592108
 20
50.1923045358
 30
0.0
 11
3.5157338556
 21
49.098977006
 31
0.0
  0
LINE
  5
E0
330
1F
100
AcDbEntity
  8
0
  6
Continuous
 62
     7
370
    15
100
AcDbLine
 10
3.5157338556
 20
49.098977006
 30
0.0
 11
3.6719232513
 21
49.0946310296
 31
0.0
  0
LINE
  5
E1
330
1F
100
AcDbEntity
  8
0
  6
Continuous
 62
     7
370
    15
100
AcDbLine
 10
10.9370363108
 20
56.1512296178
 30
0.0
 11
11.5260450398
 21
56.1556319136
 31
0.0
  0
SPLINE
  5
E2
330
1F
100
AcDbEntity
  8
0
  6
Continuous
 62
     7
370
    15
100
AcDbSpline
210
0.0
220
0.0
230
1.0
 70
    28
 71
     1
 72
     4
 73
     2
 74
     0
 42
0.00000001
 43
0.00000001
 40
0.0
 40
0.0
 40
1.0
 40
1.0
 10
11.52604503983748
 20
56.15563191361338
 30
0.0
 41
1.0
 10
12.04047199046679
 20
55.27339869191351
 30
0.0
 41
1.0
  0
SPLINE
  5
E3
330
1F
100
AcDbEntity
  8
0
  6
Continuous
 62
     7
370
    15
100
AcDbSpline
210
0.0
220
0.0
230
1.0
 70
    12
 71
     3
 72
     9
 73
     5
 74
     0
 42
0.00000001
 43
0.00000001
 40
0.0
 40
0.0
 40
0.0
 40
0.0
 40
0.501849903058839
 40
0.9999999999999999
 40
0.9999999999999999
 40
0.9999999999999999
 40
0.9999999999999999
 10
12.04047199046679
 20
55.27339869191351
 30
0.0
 41
1.0
 10
12.04879732960297
 20
55.24168138263598
 30
0.0
 41
1.0
 10
12.06538663067774
 20
55.17848059474261
 30
0.0
 41
1.0
 10
12.09360706754967
 20
55.11954875167278
 30
0.0
 41
1.0
 10
12.10766508091314
 20
55.09019184833461
 30
0.0
 41
1.0
  0
ARC
  5
E4
330
1F
100
AcDbEntity
  8
0
  6
Continuous
 62
     7
370
    15
100
AcDbCircle
 10
9.4984895409
 20
62.8266723778
 30
0.0
 40
8.100850676289063
100
AcDbArc
 50
262.5078474067
 51
270.4283304094
  0
LINE
  5
E5
330
1F
100
AcDbEntity
  8
0
  6
Continuous
 62
     7
370
    15
100
AcDbLine
 10
8.4422163837
 20
54.7949808563
 30
0.0
 11
8.4403705125
 21
55.0418839264
 31
0.0
  0
LINE
  5
E6
330
1F
100
AcDbEntity
  8
0
  6
Continuous
 62
     7
370
    15
100
AcDbLine
 10
8.4403705125
 20
55.0418839264
 30
0.0
 11
8.3153779297
 21
55.0409499638
 31
0.0
  0
LINE
  5
E7
330
1F
100
AcDbEntity
  8
0
  6
Continuous
 62
     7
370
    15
100
AcDbLine
 10
8.3153779297
 20
55.0409499638
 30
0.0
 11
8.3171332161
 21
54.8061545962
 31
0.0
  0
SPLINE
  5
E8
330
1F
100
AcDbEntity
  8
0
  6
Continuous
 62
     7
370
    15
100
AcDbSpline
210
0.0
220
0.0
230
1.0
 70
    12
 71
     3
 72
    19
 73
    15
 74
     0
 42
0.00000001
 43
0.00000001
 40
0.0
 40
0.0
 40
0.0
 40
0.0
 40
0.0835912449957038
 40
0.1664761359919796
 40
0.2501320737257133
 40
0.3332322841319224
 40
0.416484205709319
 40
0.5001535697282634
 40
0.5832012113170011
 40
0.6665517148719807
 40
0.7500990942993034
 40
0.8331215990873094
 40
0.9164979982801892
 40
1.0
 40
1.0
 40
1.0
 40
1.0
 10
8.317133216127365
 20
54.80615459622385
 30
0.0
 41
1.0
 10
8.233129299992964
 20
54.81277951566047
 30
0.0
 41
1.0
 10
8.065831308834104
 20
54.82597337333208
 30
0.0
 41
1.0
 10
7.819783533514816
 20
54.88389860835933
 30
0.0
 41
1.0
 10
7.582864239479172
 20
54.96934836795911
 30
0.0
 41
1.0
 10
7.357986934649277
 20
55.08396367554716
 30
0.0
 41
1.0
 10
7.148865927431115
 20
55.22520858516774
 30
0.0
 41
1.0
 10
6.958714178849179
 20
55.39106569379604
 30
0.0
 41
1.0
 10
6.790274089365225
 20
55.57906083725873
 30
0.0
 41
1.0
 10
6.646362344986815
 20
55.78626286243422
 30
0.0
 41
1.0
 10
6.528796041841711
 20
56.00951900988458
 30
0.0
 41
1.0
 10
6.440092940418746
 20
56.24554830327578
 30
0.0
 41
1.0
 10
6.37883647913213
 20
56.490585721258
 30
0.0
 41
1.0
 10
6.363896849928797
 20
56.65815374644622
 30
0.0
 41
1.0
 10
6.356421413104095
 20
56.74200081982975
 30
0.0
 41
1.0
  0
LINE
  5
E9
330
1F
100
AcDbEntity
  8
0
  6
Continuous
 62
     7
370
    15
100
AcDbLine
 10
6.3564214131
 20
56.7420008198
 30
0.0
 11
7.2276987614
 21
56.7485150912
 31
0.0
  0
LINE
  5
EA
330
1F
100
AcDbEntity
  8
0
  6
Continuous
 62
     7
370
    15
100
AcDbLine
 10
7.2276987614
 20
56.7485150912
 30
0.0
 11
7.2262972309
 21
56.9360115919
 31
0.0
  0
LINE
  5
EB
330
1F
100
AcDbEntity
  8
0
  6
Continuous
 62
     7
370
    15
100
AcDbLine
 10
7.2262972309
 20
56.9360115919
 30
0.0
 11
6.3550198826
 21
56.9294973205
 31
0.0
  0
SPLINE
  5
EC
330
1F
100
AcDbEntity
  8
0
  6
Continuous
 62
     7
370
    15
100
AcDbSpline
210
0.0
220
0.0
230
1.0
 70
    12
 71
     3
 72
    20
 73
    16
 74
     0
 42
0.00000001
 43
0.00000001
 40
0.0
 40
0.0
 40
0.0
 40
0.0
 40
0.0836079160333822
 40
0.1671821959079205
 40
0.2503403420842886
 40
0.3341044174876858
 40
0.4175344396495678
 40
0.5007406240619112
 40
0.5844856572608025
 40
0.6674556411281407
 40
0.7501975140475355
 40
0.8130444579730263
 40
0.8756610614013774
 40
0.9378062523863264
 40
1.0
 40
1.0
 40
1.0
 40
1.0
 10
6.355019882628028
 20
56.92949732052084
 30
0.0
 41
1.0
 10
6.361259392234103
 20
57.01355823364742
 30
0.0
 41
1.0
 10
6.373735901239729
 20
57.18164624149725
 30
0.0
 41
1.0
 10
6.431487713226047
 20
57.42801135180109
 30
0.0
 41
1.0
 10
6.516985324818559
 20
57.66583126893661
 30
0.0
 41
1.0
 10
6.631596188380544
 20
57.89113219272117
 30
0.0
 41
1.0
 10
6.77288860570481
 20
58.10070419158124
 30
0.0
 41
1.0
 10
6.938952043830749
 20
58.2912508544827
 30
0.0
 41
1.0
 10
7.126828544770681
 20
58.4596303823625
 30
0.0
 41
1.0
 10
7.333534021916336
 20
58.60343694458603
 30
0.0
 41
1.0
 10
7.53765971929564
 20
58.71099058957991
 30
0.0
 41
1.0
 10
7.732796205755773
 20
58.78846308564356
 30
0.0
 41
1.0
 10
7.914371316242742
 20
58.84134211323381
 30
0.0
 41
1.0
 10
8.099286524761744
 20
58.8786164503131
 30
0.0
 41
1.0
 10
8.224125530417945
 20
58.88916536002167
 30
0.0
 41
1.0
 10
8.286569409203072
 20
58.89444187464701
 30
0.0
 41
1.0
  0
LINE
  5
ED
330
1F
100
AcDbEntity
  8
0
  6
Continuous
 62
     7
370
    15
100
AcDbLine
 10
8.2865694092
 20
58.8944418746
 30
0.0
 11
8.2883246956
 21
58.659646507
 31
0.0
  0
LINE
  5
EE
330
1F
100
AcDbEntity
  8
0
  6
Continuous
 62
     7
370
    15
100
AcDbLine
 10
8.2883246956
 20
58.659646507
 30
0.0
 11
8.4133172783
 21
58.6605804696
 31
0.0
  0
LINE
  5
EF
330
1F
100
AcDbEntity
  8
0
  6
Continuous
 62
     7
370
    15
100
AcDbLine
 10
8.4133172783
 20
58.6605804696
 30
0.0
 11
8.4114716534
 21
58.9074847464
 31
0.0
  0
ARC
  5
F0
330
1F
100
AcDbEntity
  8
0
  6
Continuous
 62
     7
370
    15
100
AcDbCircle
 10
9.5877085266
 20
50.8924832805
 30
0.0
 40
8.100850676288305
100
AcDbArc
 50
90.4283304094
 51
98.348813412
  0
SPLINE
  5
F1
330
1F
100
AcDbEntity
  8
0
  6
Continuous
 62
     7
370
    15
100
AcDbSpline
210
0.0
220
0.0
230
1.0
 70
    12
 71
     3
 72
    20
 73
    16
 74
     0
 42
0.00000001
 43
0.00000001
 40
0.0
 40
0.0
 40
0.0
 40
0.0
 40
0.0781028872829002
 40
0.144520609474147
 40
0.2170401943207947
 40
0.2880278265465503
 40
0.358640222235983
 40
0.4311296322543941
 40
0.5002167448117939
 40
0.5855016972738847
 40
0.6687755489429703
 40
0.7500295467220004
 40
0.833913010273457
 40
0.9187314033564122
 40
1.0
 40
1.0
 40
1.0
 40
1.0
 10
9.527148864590007
 20
58.9931086815063
 30
0.0
 41
1.0
 10
9.594900394860343
 20
58.99358627077272
 30
0.0
 41
1.0
 10
9.720266982295309
 20
58.99446999600064
 30
0.0
 41
1.0
 10
9.908545728126333
 20
58.99513880152689
 30
0.0
 41
1.0
 10
10.09065371131586
 20
58.99480658098585
 30
0.0
 41
1.0
 10
10.27639364084724
 20
58.99303476956919
 30
0.0
 41
1.0
 10
10.46207961691487
 20
58.98927018432204
 30
0.0
 41
1.0
 10
10.64604804768969
 20
58.9828477583183
 30
0.0
 41
1.0
 10
10.84257383287068
 20
58.97225895104147
 30
0.0
 41
1.0
 10
11.04810695926411
 20
58.95569725863542
 30
0.0
 41
1.0
 10
11.26331301553277
 20
58.92973271157278
 30
0.0
 41
1.0
 10
11.47583043096434
 20
58.89302336139324
 30
0.0
 41
1.0
 10
11.68632979769165
 20
58.84063551646734
 30
0.0
 41
1.0
 10
11.89230421174451
 20
58.77012494574548
 30
0.0
 41
1.0
 10
12.01895329227916
 20
58.70095473482117
 30
0.0
 41
1.0
 10
12.08092438982388
 20
58.66710882081784
 30
0.0
 41
1.0
  0
SPLINE
  5
F2
330
1F
100
AcDbEntity
  8
0
  6
Continuous
 62
     7
370
    15
100
AcDbSpline
210
0.0
220
0.0
230
1.0
 70
    12
 71
     3
 72
     9
 73
     5
 74
     0
 42
0.00000001
 43
0.00000001
 40
0.0
 40
0.0
 40
0.0
 40
0.0
 40
0.4981456952325823
 40
1.0
 40
1.0
 40
1.0
 40
1.0
 10
12.08092438982388
 20
58.66710882081784
 30
0.0
 41
1.0
 10
12.06730684777536
 20
58.63754507527194
 30
0.0
 41
1.0
 10
12.0399703834059
 20
58.57819748714894
 30
0.0
 41
1.0
 10
12.02432806110072
 20
58.51475518237814
 30
0.0
 41
1.0
 10
12.0164778943153
 20
58.48291638862454
 30
0.0
 41
1.0
  0
SPLINE
  5
F3
330
1F
100
AcDbEntity
  8
0
  6
Continuous
 62
     7
370
    15
100
AcDbSpline
210
0.0
220
0.0
230
1.0
 70
    28
 71
     1
 72
     4
 73
     2
 74
     0
 42
0.00000001
 43
0.00000001
 40
0.0
 40
0.0
 40
1.0
 40
1.0
 10
12.0164778943153
 20
58.48291638862454
 30
0.0
 41
1.0
 10
11.51529860398123
 20
57.59309413459381
 30
0.0
 41
1.0
  0
LINE
  5
F4
330
1F
100
AcDbEntity
  8
0
  6
Continuous
 62
     7
370
    15
100
AcDbLine
 10
11.515298604
 20
57.5930941346
 30
0.0
 11
10.9262901683
 21
57.5886871455
 31
0.0
  0
LINE
  5
F5
330
1F
100
AcDbEntity
  8
0
  6
Continuous
 62
     7
370
    15
100
AcDbLine
 10
10.9262901683
 20
57.5886871455
 30
0.0
 11
10.9223184808
 21
58.1199241019
 31
0.0
  0
SPLINE
  5
F6
330
1F
100
AcDbEntity
  8
0
  6
Continuous
 62
     7
370
    15
100
AcDbSpline
210
0.0
220
0.0
230
1.0
 70
    12
 71
     3
 72
    12
 73
     8
 74
     0
 42
0.00000001
 43
0.00000001
 40
0.0
 40
0.0
 40
0.0
 40
0.0
 40
0.1768117017901362
 40
0.3671433580334859
 40
0.5635467671574979
 40
0.7902757767673887
 40
1.0
 40
1.0
 40
1.0
 40
1.0
 10
10.92231848080488
 20
58.11992410194241
 30
0.0
 41
1.0
 10
10.92027388376233
 20
58.14302208627736
 30
0.0
 41
1.0
 10
10.91602834901305
 20
58.19098424854763
 30
0.0
 41
1.0
 10
10.88344129670554
 20
58.25871743539327
 30
0.0
 41
1.0
 10
10.82917699368191
 20
58.31842531239814
 30
0.0
 41
1.0
 10
10.75508364666108
 20
58.36054101414756
 30
0.0
 41
1.0
 10
10.69792326142598
 20
58.36561178077731
 30
0.0
 41
1.0
 10
10.67045659033493
 20
58.36804838225623
 30
0.0
 41
1.0
  0
LINE
  5
F7
330
1F
100
AcDbEntity
  8
0
  6
Continuous
 62
     7
370
    15
100
AcDbLine
 10
10.6704565903
 20
58.3680483823
 30
0.0
 11
8.8093927828
 21
58.3541328097
 31
0.0
  0
SPLINE
  5
F8
330
1F
100
AcDbEntity
  8
0
  6
Continuous
 62
     7
370
    15
100
AcDbSpline
210
0.0
220
0.0
230
1.0
 70
    12
 71
     3
 72
    12
 73
     8
 74
     0
 42
0.00000001
 43
0.00000001
 40
0.0
 40
0.0
 40
0.0
 40
0.0
 40
0.1768129648049515
 40
0.3671502479592131
 40
0.563552232041813
 40
0.7902725931661612
 40
0.9999999999999999
 40
0.9999999999999999
 40
0.9999999999999999
 40
0.9999999999999999
 10
8.809392782836179
 20
58.35413280967676
 30
0.0
 41
1.0
 10
8.78629460220968
 20
58.35208866481936
 30
0.0
 41
1.0
 10
8.7383314748803
 20
58.34784401968209
 30
0.0
 41
1.0
 10
8.670597572482377
 20
58.31525680965397
 30
0.0
 41
1.0
 10
8.610889936814178
 20
58.26099274837593
 30
0.0
 41
1.0
 10
8.568778266131693
 20
58.18689877819677
 30
0.0
 41
1.0
 10
8.563705927092611
 20
58.12973955347736
 30
0.0
 41
1.0
 10
8.56126850252237
 20
58.10227267918648
 30
0.0
 41
1.0
  0
LINE
  5
F9
330
1F
100
AcDbEntity
  8
0
  6
Continuous
 62
     7
370
    15
100
AcDbLine
 10
8.5612685025
 20
58.1022726792
 30
0.0
 11
8.57995802
 21
55.6023412386
 31
0.0
  0
SPLINE
  5
FA
330
1F
100
AcDbEntity
  8
0
  6
Continuous
 62
     7
370
    15
100
AcDbSpline
210
0.0
220
0.0
230
1.0
 70
    12
 71
     3
 72
    12
 73
     8
 74
     0
 42
0.00000001
 43
0.00000001
 40
0.0
 40
0.0
 40
0.0
 40
0.0
 40
0.1768123873558275
 40
0.367144781586834
 40
0.56354895224098
 40
0.7902730834332149
 40
1.0
 40
1.0
 40
1.0
 40
1.0
 10
8.579958019952803
 20
55.60234123860781
 30
0.0
 41
1.0
 10
8.582002604348531
 20
55.57924322738181
 30
0.0
 41
1.0
 10
8.58624811283711
 20
55.53128100927318
 30
0.0
 41
1.0
 10
8.618835375935625
 20
55.46354827063428
 30
0.0
 41
1.0
 10
8.673098288340217
 20
55.40383908001122
 30
0.0
 41
1.0
 10
8.74719464826408
 20
55.36173126691307
 30
0.0
 41
1.0
 10
8.804353490526012
 20
55.35665584179641
 30
0.0
 41
1.0
 10
8.831819910422753
 20
55.354216958294
 30
0.0
 41
1.0
  0
LINE
  5
FB
330
1F
100
AcDbEntity
  8
0
  6
Continuous
 62
     7
370
    15
100
AcDbLine
 10
8.8318199104
 20
55.3542169583
 30
0.0
 11
10.6928837179
 21
55.3681325309
 31
0.0
  0
SPLINE
  5
FC
330
1F
100
AcDbEntity
  8
0
  6
Continuous
 62
     7
370
    15
100
AcDbSpline
210
0.0
220
0.0
230
1.0
 70
    12
 71
     3
 72
    12
 73
     8
 74
     0
 42
0.00000001
 43
0.00000001
 40
0.0
 40
0.0
 40
0.0
 40
0.0
 40
0.1768129751929077
 40
0.3671502695296942
 40
0.5635522651511267
 40
0.7902726395955454
 40
1.0
 40
1.0
 40
1.0
 40
1.0
 10
10.69288371792151
 20
55.36813253087346
 30
0.0
 41
1.0
 10
10.71598189836735
 20
55.37017667575989
 30
0.0
 41
1.0
 10
10.7639450253216
 20
55.37442132095739
 30
0.0
 41
1.0
 10
10.83167893073066
 20
55.40700853050193
 30
0.0
 41
1.0
 10
10.89138655380945
 20
55.46127259380187
 30
0.0
 41
1.0
 10
10.93349827362499
 20
55.5353665485836
 30
0.0
 41
1.0
 10
10.93857048750014
 20
55.59252578530329
 30
0.0
 41
1.0
 10
10.94100785157034
 20
55.61999266136374
 30
0.0
 41
1.0
  0
LINE
  5
FD
330
1F
100
AcDbEntity
  8
0
  6
Continuous
 62
     7
370
    15
100
AcDbLine
 10
10.9410078516
 20
55.6199926614
 30
0.0
 11
10.9370363108
 21
56.1512296178
 31
0.0
  0
SPLINE
  5
FE
330
1F
100
AcDbEntity
  8
0
  6
Continuous
 62
     7
370
    15
100
AcDbSpline
210
0.0
220
0.0
230
1.0
 70
    12
 71
     3
 72
    19
 73
    15
 74
     0
 42
0.00000001
 43
0.00000001
 40
0.0
 40
0.0
 40
0.0
 40
0.0
 40
0.0812736456928855
 40
0.16609961563704
 40
0.2499778659412789
 40
0.3749666656077509
 40
0.4997684580364402
 40
0.5688657002246483
 40
0.6413531332658042
 40
0.7119703493331775
 40
0.7829600861183492
 40
0.8554791123443156
 40
0.9219001016250078
 40
1.0
 40
1.0
 40
1.0
 40
1.0
 10
12.10766508091314
 20
55.09019184833461
 30
0.0
 41
1.0
 10
12.04620402146268
 20
55.05542429971297
 30
0.0
 41
1.0
 10
11.92059555066833
 20
54.98436957571892
 30
0.0
 41
1.0
 10
11.7157061583605
 20
54.91076505870559
 30
0.0
 41
1.0
 10
11.46930706158497
 20
54.84558738782686
 30
0.0
 41
1.0
 10
11.18347032039271
 20
54.79715863854872
 30
0.0
 41
1.0
 10
10.90820926703965
 20
54.76890807221655
 30
0.0
 41
1.0
 10
10.6776585509658
 20
54.75303817372682
 30
0.0
 41
1.0
 10
10.49380157841857
 20
54.74386702385504
 30
0.0
 41
1.0
 10
10.3081939239345
 20
54.73731989715967
 30
0.0
 41
1.0
 10
10.12250115699225
 20
54.73277585678993
 30
0.0
 41
1.0
 10
9.940419726059542
 20
54.72972202960529
 30
0.0
 41
1.0
 10
9.752157906388911
 20
54.72757226367697
 30
0.0
 41
1.0
 10
9.626795584634912
 20
54.72658385166484
 30
0.0
 41
1.0
 10
9.55904908274263
 20
54.72604970826902
 30
0.0
 41
1.0
  0
LINE
  5
FF
330
1F
100
AcDbEntity
  8
0
  6
PHANTOM
 62
     7
370
     0
100
AcDbLine
 10
8.702241994
 20
37.0807329085
 30
0.0
 11
8.7014860827
 21
37.0812820221
 31
0.0
  0
ENDSEC
  0
SECTION
  2
OBJECTS
  0
DICTIONARY
  5
C
330
0
100
AcDbDictionary
281
     1
  3
ACAD_GROUP
350
D
  3
ACAD_LAYOUT
350
1A
  3
ACAD_MLINESTYLE
350
17
  3
ACAD_PLOTSETTINGS
350
19
  3
ACAD_PLOTSTYLENAME
350
E
  0
DICTIONARY
  5
D
102
{ACAD_REACTORS
330
C
102
}
330
C
100
AcDbDictionary
281
     1
  0
DICTIONARY
  5
1A
102
{ACAD_REACTORS
330
C
102
}
330
C
100
AcDbDictionary
281
     1
  3
Layout1
350
1E
  3
Layout2
350
26
  3
Model
350
22
  0
DICTIONARY
  5
17
102
{ACAD_REACTORS
330
C
102
}
330
C
100
AcDbDictionary
281
     1
  3
Standard
350
18
  0
DICTIONARY
  5
19
102
{ACAD_REACTORS
330
C
102
}
330
C
100
AcDbDictionary
281
     1
  0
ACDBDICTIONARYWDFLT
  5
E
102
{ACAD_REACTORS
330
C
102
}
330
C
100
AcDbDictionary
281
     1
  3
Normal
350
F
100
AcDbDictionaryWithDefault
340
F
  0
LAYOUT
  5
1E
102
{ACAD_REACTORS
330
1A
102
}
330
1A
100
AcDbPlotSettings
  1

  2

  4

  6

 40
0.0
 41
0.0
 42
0.0
 43
0.0
 44
0.0
 45
0.0
 46
0.0
 47
0.0
 48
0.0
 49
0.0
140
0.0
141
0.0
142
1.0
143
1.0
 70
   688
 72
     0
 73
     0
 74
     5
  7

 75
    16
147
1.0
148
0.0
149
0.0
100
AcDbLayout
  1
Layout1
 70
     1
 71
     1
 10
0.0
 20
0.0
 11
12.0
 21
9.0
 12
0.0
 22
0.0
 32
0.0
 14
1.0000000000E+20
 24
1.0000000000E+20
 34
1.0000000000E+20
 15
-1.0000000000E+20
 25
-1.0000000000E+20
 35
-1.0000000000E+20
146
0.0
 13
0.0
 23
0.0
 33
0.0
 16
1.0
 26
0.0
 36
0.0
 17
0.0
 27
1.0
 37
0.0
 76
     0
330
1B
  0
LAYOUT
  5
26
102
{ACAD_REACTORS
330
1A
102
}
330
1A
100
AcDbPlotSettings
  1

  2

  4

  6

 40
0.0
 41
0.0
 42
0.0
 43
0.0
 44
0.0
 45
0.0
 46
0.0
 47
0.0
 48
0.0
 49
0.0
140
0.0
141
0.0
142
1.0
143
1.0
 70
   688
 72
     0
 73
     0
 74
     5
  7

 75
    16
147
1.0
148
0.0
149
0.0
100
AcDbLayout
  1
Layout2
 70
     1
 71
     2
 10
0.0
 20
0.0
 11
0.0
 21
0.0
 12
0.0
 22
0.0
 32
0.0
 14
0.0
 24
0.0
 34
0.0
 15
0.0
 25
0.0
 35
0.0
146
0.0
 13
0.0
 23
0.0
 33
0.0
 16
1.0
 26
0.0
 36
0.0
 17
0.0
 27
1.0
 37
0.0
 76
     0
330
23
  0
LAYOUT
  5
22
102
{ACAD_REACTORS
330
1A
102
}
330
1A
100
AcDbPlotSettings
  1

  2

  4

  6

 40
0.0
 41
0.0
 42
0.0
 43
0.0
 44
0.0
 45
0.0
 46
0.0
 47
0.0
 48
0.0
 49
0.0
140
0.0
141
0.0
142
1.0
143
1.0
 70
  1712
 72
     0
 73
     0
 74
     0
  7

 75
     0
147
1.0
148
0.0
149
0.0
100
AcDbLayout
  1
Model
 70
     1
 71
     0
 10
0.0
 20
0.0
 11
0.0
 21
0.0
 12
0.0
 22
0.0
 32
0.0
 14
0.0
 24
0.0
 34
0.0
 15
13.3333333333
 25
60.0
 35
0.0
146
0.0
 13
0.0
 23
0.0
 33
0.0
 16
1.0
 26
0.0
 36
0.0
 17
0.0
 27
1.0
 37
0.0
 76
     0
330
1F
  0
MLINESTYLE
  5
18
102
{ACAD_REACTORS
330
17
102
}
330
17
100
AcDbMlineStyle
  2
Standard
 70
     0
  3

 62
   256
 51
90.0
 52
90.0
 71
     2
 49
0.5
 62
   256
  6
BYLAYER
 49
-0.5
 62
   256
  6
BYLAYER
  0
ACDBPLACEHOLDER
  5
F
102
{ACAD_REACTORS
330
E
102
}
330
E
  0
ENDSEC
  0
EOF
