  0
SECTION
  2
HEADER
  9
$ACADVER
  1
AC1009
  0
ENDSEC
  0
SECTION
  2
ENTITIES
  0
POLYLINE
  5
90
  8
Layer_3
  62
0
  70
1
  66
1
  10
0
  20
0
  30
0
  0
VERTEX
  5
90
  8
Layer_3
  10
33.143074
  20
24.016714
  0
VERTEX
  5
91
  8
Layer_3
  10
36.077785
  20
23.992977
  0
VERTEX
  5
92
  8
Layer_3
  10
40.53857
  20
24.244167
  0
VERTEX
  5
93
  8
Layer_3
  10
40.59304
  20
24.249676
  0
VERTEX
  5
94
  8
Layer_3
  10
40.646027
  20
24.259857
  0
VERTEX
  5
95
  8
Layer_3
  10
40.697304
  20
24.274504
  0
VERTEX
  5
96
  8
Layer_3
  10
40.746658
  20
24.293413
  0
VERTEX
  5
97
  8
Layer_3
  10
40.793865
  20
24.316376
  0
VERTEX
  5
98
  8
Layer_3
  10
40.838711
  20
24.343185
  0
VERTEX
  5
99
  8
Layer_3
  10
40.88097
  20
24.37364
  0
VERTEX
  5
9a
  8
Layer_3
  10
40.920422
  20
24.407532
  0
VERTEX
  5
9b
  8
Layer_3
  10
40.956848
  20
24.444654
  0
VERTEX
  5
9c
  8
Layer_3
  10
40.99004
  20
24.484806
  0
VERTEX
  5
9d
  8
Layer_3
  10
41.01976
  20
24.527773
  0
VERTEX
  5
9e
  8
Layer_3
  10
41.045795
  20
24.573357
  0
VERTEX
  5
9f
  8
Layer_3
  10
41.067932
  20
24.621351
  0
VERTEX
  5
a0
  8
Layer_3
  10
41.085945
  20
24.671547
  0
VERTEX
  5
a1
  8
Layer_3
  10
41.099613
  20
24.723742
  0
VERTEX
  5
a2
  8
Layer_3
  10
41.108715
  20
24.777727
  0
VERTEX
  5
a3
  8
Layer_3
  10
41.11998
  20
24.894794
  0
VERTEX
  5
a4
  8
Layer_3
  10
41.124992
  20
25.012045
  0
VERTEX
  5
a5
  8
Layer_3
  10
41.123783
  20
25.129236
  0
VERTEX
  5
a6
  8
Layer_3
  10
41.116371
  20
25.246115
  0
VERTEX
  5
a7
  8
Layer_3
  10
41.102776
  20
25.362436
  0
VERTEX
  5
a8
  8
Layer_3
  10
41.083023
  20
25.477953
  0
VERTEX
  5
a9
  8
Layer_3
  10
41.057129
  20
25.592421
  0
VERTEX
  5
aa
  8
Layer_3
  10
41.025127
  20
25.705591
  0
VERTEX
  5
ab
  8
Layer_3
  10
40.986675
  20
25.814806
  0
VERTEX
  5
ac
  8
Layer_3
  10
40.940845
  20
25.919945
  0
VERTEX
  5
ad
  8
Layer_3
  10
40.887974
  20
26.020721
  0
VERTEX
  5
ae
  8
Layer_3
  10
40.828396
  20
26.116865
  0
VERTEX
  5
af
  8
Layer_3
  10
40.76244
  20
26.208094
  0
VERTEX
  5
b0
  8
Layer_3
  10
40.69043
  20
26.294128
  0
VERTEX
  5
b1
  8
Layer_3
  10
40.612713
  20
26.374697
  0
VERTEX
  5
b2
  8
Layer_3
  10
40.529602
  20
26.449518
  0
VERTEX
  5
b3
  8
Layer_3
  10
40.441448
  20
26.518311
  0
VERTEX
  5
b4
  8
Layer_3
  10
40.348564
  20
26.580801
  0
VERTEX
  5
b5
  8
Layer_3
  10
40.251297
  20
26.636709
  0
VERTEX
  5
b6
  8
Layer_3
  10
40.149971
  20
26.685759
  0
VERTEX
  5
b7
  8
Layer_3
  10
40.044914
  20
26.727671
  0
VERTEX
  5
b8
  8
Layer_3
  10
39.936462
  20
26.762167
  0
VERTEX
  5
b9
  8
Layer_3
  10
39.824951
  20
26.788969
  0
VERTEX
  5
ba
  8
Layer_3
  10
39.710705
  20
26.807798
  0
VERTEX
  5
bb
  8
Layer_3
  10
36.057568
  20
27.383526
  0
VERTEX
  5
bc
  8
Layer_3
  10
33.141628
  20
27.432415
  0
VERTEX
  5
bd
  8
Layer_3
  10
30.225735
  20
27.38106
  0
VERTEX
  5
be
  8
Layer_3
  10
26.57309
  20
26.802238
  0
VERTEX
  5
bf
  8
Layer_3
  10
26.458858
  20
26.78331
  0
VERTEX
  5
c0
  8
Layer_3
  10
26.347366
  20
26.756414
  0
VERTEX
  5
c1
  8
Layer_3
  10
26.238945
  20
26.721827
  0
VERTEX
  5
c2
  8
Layer_3
  10
26.133926
  20
26.679825
  0
VERTEX
  5
c3
  8
Layer_3
  10
26.032639
  20
26.630692
  0
VERTEX
  5
c4
  8
Layer_3
  10
25.935419
  20
26.574697
  0
VERTEX
  5
c5
  8
Layer_3
  10
25.842592
  20
26.512129
  0
VERTEX
  5
c6
  8
Layer_3
  10
25.754492
  20
26.44326
  0
VERTEX
  5
c7
  8
Layer_3
  10
25.67145
  20
26.368372
  0
VERTEX
  5
c8
  8
Layer_3
  10
25.593796
  20
26.287739
  0
VERTEX
  5
c9
  8
Layer_3
  10
25.52186
  20
26.201641
  0
VERTEX
  5
ca
  8
Layer_3
  10
25.455984
  20
26.110357
  0
VERTEX
  5
cb
  8
Layer_3
  10
25.396488
  20
26.014164
  0
VERTEX
  5
cc
  8
Layer_3
  10
25.3437
  20
25.913342
  0
VERTEX
  5
cd
  8
Layer_3
  10
25.297962
  20
25.808167
  0
VERTEX
  5
ce
  8
Layer_3
  10
25.259602
  20
25.698915
  0
VERTEX
  5
cf
  8
Layer_3
  10
25.22769
  20
25.58572
  0
VERTEX
  5
d0
  8
Layer_3
  10
25.201899
  20
25.47123
  0
VERTEX
  5
d1
  8
Layer_3
  10
25.182245
  20
25.355696
  0
VERTEX
  5
d2
  8
Layer_3
  10
25.168751
  20
25.239361
  0
VERTEX
  5
d3
  8
Layer_3
  10
25.161436
  20
25.122477
  0
VERTEX
  5
d4
  8
Layer_3
  10
25.160324
  20
25.005287
  0
VERTEX
  5
d5
  8
Layer_3
  10
25.165438
  20
24.888039
  0
VERTEX
  5
d6
  8
Layer_3
  10
25.176798
  20
24.770981
  0
VERTEX
  5
d7
  8
Layer_3
  10
25.185946
  20
24.717005
  0
VERTEX
  5
d8
  8
Layer_3
  10
25.199657
  20
24.664822
  0
VERTEX
  5
d9
  8
Layer_3
  10
25.217712
  20
24.614641
  0
VERTEX
  5
da
  8
Layer_3
  10
25.239887
  20
24.566666
  0
VERTEX
  5
db
  8
Layer_3
  10
25.265963
  20
24.521101
  0
VERTEX
  5
dc
  8
Layer_3
  10
25.295717
  20
24.478157
  0
VERTEX
  5
dd
  8
Layer_3
  10
25.328939
  20
24.438038
  0
VERTEX
  5
de
  8
Layer_3
  10
25.365402
  20
24.400946
  0
VERTEX
  5
df
  8
Layer_3
  10
25.404884
  20
24.367088
  0
VERTEX
  5
e0
  8
Layer_3
  10
25.447166
  20
24.336668
  0
VERTEX
  5
e1
  8
Layer_3
  10
25.492035
  20
24.309896
  0
VERTEX
  5
e2
  8
Layer_3
  10
25.539263
  20
24.286976
  0
VERTEX
  5
e3
  8
Layer_3
  10
25.588631
  20
24.268106
  0
VERTEX
  5
e4
  8
Layer_3
  10
25.639923
  20
24.253504
  0
VERTEX
  5
e5
  8
Layer_3
  10
25.692917
  20
24.243368
  0
VERTEX
  5
e6
  8
Layer_3
  10
25.747393
  20
24.237907
  0
VERTEX
  5
e7
  8
Layer_3
  10
30.208385
  20
23.990494
  0
VERTEX
  5
e8
  8
Layer_3
  10
33.143074
  20
24.016714
  0
SEQEND
  0
POLYLINE
  5
ea
  8
Layer_0
  62
4
  66
1
  10
0
  20
0
  30
0
  0
VERTEX
  5
ea
  8
Layer_0
  10
33.155651
  20
25.055393
  0
VERTEX
  5
eb
  8
Layer_0
  10
35.925766
  20
25.058207
  0
VERTEX
  5
ec
  8
Layer_0
  10
40.845169
  20
25.017378
  0
SEQEND
  0
POLYLINE
  5
ee
  8
Layer_0
  62
4
  66
1
  10
0
  20
0
  30
0
  0
VERTEX
  5
ee
  8
Layer_0
  10
33.13192
  20
26.322735
  0
VERTEX
  5
ef
  8
Layer_0
  10
35.970547
  20
26.297054
  0
SEQEND
  0
POLYLINE
  5
f1
  8
Layer_1
  62
1
  66
1
  10
0
  20
0
  30
0
  0
VERTEX
  5
f1
  8
Layer_1
  10
36.007481
  20
23.996637
  0
VERTEX
  5
f2
  8
Layer_1
  10
35.988724
  20
26.613556
  0
SEQEND
  0
POLYLINE
  5
f4
  8
Layer_0
  62
4
  66
1
  10
0
  20
0
  30
0
  0
VERTEX
  5
f4
  8
Layer_0
  10
33.16465
  20
26.694122
  0
VERTEX
  5
f5
  8
Layer_0
  10
36.002884
  20
26.640903
  0
VERTEX
  5
f6
  8
Layer_0
  10
37.654617
  20
26.493999
  0
VERTEX
  5
f7
  8
Layer_0
  10
40.597729
  20
26.053707
  0
VERTEX
  5
f8
  8
Layer_0
  10
40.602699
  20
26.411711
  0
SEQEND
  0
POLYLINE
  5
fa
  8
Layer_0
  62
4
  66
1
  10
0
  20
0
  30
0
  0
VERTEX
  5
fa
  8
Layer_0
  10
37.682175
  20
26.493618
  0
VERTEX
  5
fb
  8
Layer_0
  10
37.732502
  20
27.140196
  0
SEQEND
  0
POLYLINE
  5
fd
  8
Layer_0
  62
4
  66
1
  10
0
  20
0
  30
0
  0
VERTEX
  5
fd
  8
Layer_0
  10
35.135014
  20
26.666737
  0
VERTEX
  5
fe
  8
Layer_0
  10
35.158741
  20
27.382545
  0
SEQEND
  0
POLYLINE
  5
100
  8
Layer_0
  62
4
  66
1
  10
0
  20
0
  30
0
  0
VERTEX
  5
100
  8
Layer_0
  10
35.002396
  20
25.057268
  0
VERTEX
  5
101
  8
Layer_0
  10
35.019619
  20
26.296499
  0
SEQEND
  0
POLYLINE
  5
103
  8
Layer_0
  62
4
  66
1
  10
0
  20
0
  30
0
  0
VERTEX
  5
103
  8
Layer_0
  10
40.1306
  20
26.114231
  0
VERTEX
  5
104
  8
Layer_0
  10
40.103409
  20
24.201378
  0
SEQEND
  0
POLYLINE
  5
106
  8
Layer_0
  62
4
  66
1
  10
0
  20
0
  30
0
  0
VERTEX
  5
106
  8
Layer_0
  10
38.724579
  20
24.151678
  0
VERTEX
  5
107
  8
Layer_0
  10
38.736828
  20
25.032911
  0
SEQEND
  0
POLYLINE
  5
109
  8
Layer_0
  62
4
  66
1
  10
0
  20
0
  30
0
  0
VERTEX
  5
109
  8
Layer_0
  10
33.967464
  20
23.983053
  0
VERTEX
  5
10a
  8
Layer_0
  10
34.381588
  20
25.02396
  0
SEQEND
  0
POLYLINE
  5
10c
  8
Layer_0
  62
4
  66
1
  10
0
  20
0
  30
0
  0
VERTEX
  5
10c
  8
Layer_0
  10
34.643578
  20
25.034088
  0
VERTEX
  5
10d
  8
Layer_0
  10
35.194157
  20
23.993547
  0
SEQEND
  0
POLYLINE
  5
10f
  8
Layer_0
  62
4
  66
1
  10
0
  20
0
  30
0
  0
VERTEX
  5
10f
  8
Layer_0
  10
38.341602
  20
26.35968
  0
VERTEX
  5
110
  8
Layer_0
  10
38.3372
  20
25.051413
  0
SEQEND
  0
POLYLINE
  5
112
  8
Layer_0
  62
4
  66
1
  10
0
  20
0
  30
0
  0
VERTEX
  5
112
  8
Layer_0
  10
40.822601
  20
24.34181
  0
VERTEX
  5
113
  8
Layer_0
  10
40.859726
  20
26.021465
  0
SEQEND
  0
POLYLINE
  5
115
  8
Layer_0
  62
4
  66
1
  10
0
  20
0
  30
0
  0
VERTEX
  5
115
  8
Layer_0
  10
33.12962
  20
25.055382
  0
VERTEX
  5
116
  8
Layer_0
  10
30.359512
  20
25.055849
  0
VERTEX
  5
117
  8
Layer_0
  10
25.440138
  20
25.010857
  0
SEQEND
  0
POLYLINE
  5
119
  8
Layer_0
  62
4
  66
1
  10
0
  20
0
  30
0
  0
VERTEX
  5
119
  8
Layer_0
  10
33.152279
  20
26.322742
  0
VERTEX
  5
11a
  8
Layer_0
  10
30.313679
  20
26.294662
  0
SEQEND
  0
POLYLINE
  5
11c
  8
Layer_1
  62
1
  66
1
  10
0
  20
0
  30
0
  0
VERTEX
  5
11c
  8
Layer_1
  10
30.278696
  20
23.994213
  0
VERTEX
  5
11d
  8
Layer_1
  10
30.295233
  20
26.611145
  0
SEQEND
  0
POLYLINE
  5
11f
  8
Layer_0
  62
4
  66
1
  10
0
  20
0
  30
0
  0
VERTEX
  5
11f
  8
Layer_0
  10
33.119244
  20
26.694103
  0
VERTEX
  5
120
  8
Layer_0
  10
30.28105
  20
26.638481
  0
VERTEX
  5
121
  8
Layer_0
  10
28.629438
  20
26.490179
  0
VERTEX
  5
122
  8
Layer_0
  10
25.686703
  20
26.047398
  0
VERTEX
  5
123
  8
Layer_0
  10
25.681429
  20
26.405392
  0
SEQEND
  0
POLYLINE
  5
125
  8
Layer_0
  62
4
  66
1
  10
0
  20
0
  30
0
  0
VERTEX
  5
125
  8
Layer_0
  10
28.601883
  20
26.489773
  0
VERTEX
  5
126
  8
Layer_0
  10
28.551003
  20
27.136309
  0
SEQEND
  0
POLYLINE
  5
128
  8
Layer_0
  62
4
  66
1
  10
0
  20
0
  30
0
  0
VERTEX
  5
128
  8
Layer_0
  10
31.148899
  20
26.665049
  0
VERTEX
  5
129
  8
Layer_0
  10
31.124561
  20
27.380838
  0
SEQEND
  0
POLYLINE
  5
12b
  8
Layer_0
  62
4
  66
1
  10
0
  20
0
  30
0
  0
VERTEX
  5
12b
  8
Layer_0
  10
31.282877
  20
25.055696
  0
VERTEX
  5
12c
  8
Layer_0
  10
31.264606
  20
26.294912
  0
SEQEND
  0
POLYLINE
  5
12e
  8
Layer_0
  62
4
  66
1
  10
0
  20
0
  30
0
  0
VERTEX
  5
12e
  8
Layer_0
  10
26.153778
  20
26.108313
  0
VERTEX
  5
12f
  8
Layer_0
  10
26.182589
  20
24.195482
  0
SEQEND
  0
POLYLINE
  5
131
  8
Layer_0
  62
4
  66
1
  10
0
  20
0
  30
0
  0
VERTEX
  5
131
  8
Layer_0
  10
27.561462
  20
24.146955
  0
VERTEX
  5
132
  8
Layer_0
  10
27.548473
  20
25.028173
  0
SEQEND
  0
POLYLINE
  5
134
  8
Layer_0
  62
4
  66
1
  10
0
  20
0
  30
0
  0
VERTEX
  5
134
  8
Layer_0
  10
32.318722
  20
23.982355
  0
VERTEX
  5
135
  8
Layer_0
  10
31.903711
  20
25.022911
  0
SEQEND
  0
POLYLINE
  5
137
  8
Layer_0
  62
4
  66
1
  10
0
  20
0
  30
0
  0
VERTEX
  5
137
  8
Layer_0
  10
31.641712
  20
25.03282
  0
VERTEX
  5
138
  8
Layer_0
  10
31.09202
  20
23.99181
  0
SEQEND
  0
POLYLINE
  5
13a
  8
Layer_0
  62
4
  66
1
  10
0
  20
0
  30
0
  0
VERTEX
  5
13a
  8
Layer_0
  10
27.942568
  20
26.355278
  0
VERTEX
  5
13b
  8
Layer_0
  10
27.948076
  20
25.047014
  0
SEQEND
  0
POLYLINE
  5
13d
  8
Layer_0
  62
4
  66
1
  10
0
  20
0
  30
0
  0
VERTEX
  5
13d
  8
Layer_0
  10
25.463282
  20
24.335308
  0
VERTEX
  5
13e
  8
Layer_0
  10
25.42473
  20
26.014931
  0
SEQEND
  0
POLYLINE
  5
140
  8
Layer_5
  62
52
  66
1
  10
0
  20
0
  30
0
  0
VERTEX
  5
140
  8
Layer_5
  10
25.868666
  20
18.103195
  0
VERTEX
  5
141
  8
Layer_5
  10
25.867218
  20
21.519775
  0
SEQEND
  0
POLYLINE
  5
143
  8
Layer_0
  62
4
  66
1
  10
0
  20
0
  30
0
  0
VERTEX
  5
143
  8
Layer_0
  10
33.046757
  20
27.432468
  0
VERTEX
  5
144
  8
Layer_0
  10
33.048294
  20
24.015882
  0
SEQEND
  0
POLYLINE
  5
146
  8
Layer_0
  62
4
  66
1
  10
0
  20
0
  30
0
  0
VERTEX
  5
146
  8
Layer_0
  10
33.23838
  20
24.015882
  0
VERTEX
  5
147
  8
Layer_0
  10
33.236843
  20
27.432468
  0
SEQEND
  0
POLYLINE
  5
149
  8
Layer_3
  62
0
  70
1
  66
1
  10
0
  20
0
  30
0
  0
VERTEX
  5
149
  8
Layer_3
  10
26.099396
  20
18.756741
  0
VERTEX
  5
14a
  8
Layer_3
  10
26.099396
  20
18.107624
  0
VERTEX
  5
14b
  8
Layer_3
  10
27.958925
  20
18.086267
  0
VERTEX
  5
14c
  8
Layer_3
  10
27.958925
  20
19.684956
  0
VERTEX
  5
14d
  8
Layer_3
  10
27.397766
  20
19.674625
  0
VERTEX
  5
14e
  8
Layer_3
  10
27.551277
  20
18.731241
  0
VERTEX
  5
14f
  8
Layer_3
  10
27.236237
  20
18.696148
  0
VERTEX
  5
150
  8
Layer_3
  10
27.053436
  20
19.668531
  0
VERTEX
  5
151
  8
Layer_3
  10
26.099396
  20
19.677864
  0
VERTEX
  5
152
  8
Layer_3
  10
26.099396
  20
18.756741
  0
SEQEND
  0
POLYLINE
  5
154
  8
Layer_4
  62
163
  70
1
  66
1
  10
0
  20
0
  30
0
  0
VERTEX
  5
154
  8
Layer_4
  10
24.63171
  20
27.679729
  0
VERTEX
  5
155
  8
Layer_4
  10
41.63171
  20
27.679729
  0
VERTEX
  5
156
  8
Layer_4
  10
41.63171
  20
17.679731
  0
VERTEX
  5
157
  8
Layer_4
  10
24.63171
  20
17.679731
  0
VERTEX
  5
158
  8
Layer_4
  10
24.63171
  20
27.679729
  0
SEQEND
  0
POLYLINE
  5
15a
  8
Layer_3
  62
0
  66
1
  10
0
  20
0
  30
0
  0
VERTEX
  5
15a
  8
Layer_3
  10
37.83987
  20
23.913141
  0
VERTEX
  5
15b
  8
Layer_3
  10
40.630157
  20
23.623047
  0
VERTEX
  5
15c
  8
Layer_3
  10
40.688492
  20
23.615049
  0
VERTEX
  5
15d
  8
Layer_3
  10
40.745239
  20
23.60121
  0
VERTEX
  5
15e
  8
Layer_3
  10
40.800003
  20
23.581747
  0
VERTEX
  5
15f
  8
Layer_3
  10
40.852379
  20
23.556879
  0
VERTEX
  5
160
  8
Layer_3
  10
40.901951
  20
23.526821
  0
VERTEX
  5
161
  8
Layer_3
  10
40.94833
  20
23.491793
  0
VERTEX
  5
162
  8
Layer_3
  10
40.991104
  20
23.452015
  0
VERTEX
  5
163
  8
Layer_3
  10
41.029869
  20
23.4077
  0
VERTEX
  5
164
  8
Layer_3
  10
41.064358
  20
23.356588
  0
VERTEX
  5
165
  8
Layer_3
  10
41.090591
  20
23.301882
  0
VERTEX
  5
166
  8
Layer_3
  10
41.108494
  20
23.244524
  0
VERTEX
  5
167
  8
Layer_3
  10
41.117977
  20
23.185469
  0
VERTEX
  5
168
  8
Layer_3
  10
41.118958
  20
23.125666
  0
VERTEX
  5
169
  8
Layer_3
  10
41.111355
  20
23.066065
  0
VERTEX
  5
16a
  8
Layer_3
  10
41.095081
  20
23.007614
  0
VERTEX
  5
16b
  8
Layer_3
  10
41.070057
  20
22.951267
  0
VERTEX
  5
16c
  8
Layer_3
  10
41.027218
  20
22.881201
  0
VERTEX
  5
16d
  8
Layer_3
  10
40.977158
  20
22.817114
  0
VERTEX
  5
16e
  8
Layer_3
  10
40.920521
  20
22.75946
  0
VERTEX
  5
16f
  8
Layer_3
  10
40.857933
  20
22.7087
  0
VERTEX
  5
170
  8
Layer_3
  10
40.790047
  20
22.665293
  0
VERTEX
  5
171
  8
Layer_3
  10
40.71748
  20
22.6297
  0
VERTEX
  5
172
  8
Layer_3
  10
40.640884
  20
22.602381
  0
VERTEX
  5
173
  8
Layer_3
  10
40.560894
  20
22.583794
  0
VERTEX
  5
174
  8
Layer_3
  10
37.859516
  20
22.117386
  0
VERTEX
  5
175
  8
Layer_3
  10
35.158138
  20
22.583794
  0
VERTEX
  5
176
  8
Layer_3
  10
35.078148
  20
22.602381
  0
VERTEX
  5
177
  8
Layer_3
  10
35.001553
  20
22.6297
  0
VERTEX
  5
178
  8
Layer_3
  10
34.928989
  20
22.665293
  0
VERTEX
  5
179
  8
Layer_3
  10
34.861099
  20
22.7087
  0
VERTEX
  5
17a
  8
Layer_3
  10
34.798512
  20
22.75946
  0
VERTEX
  5
17b
  8
Layer_3
  10
34.741871
  20
22.817114
  0
VERTEX
  5
17c
  8
Layer_3
  10
34.691814
  20
22.881201
  0
VERTEX
  5
17d
  8
Layer_3
  10
34.648975
  20
22.951267
  0
VERTEX
  5
17e
  8
Layer_3
  10
34.623951
  20
23.007614
  0
VERTEX
  5
17f
  8
Layer_3
  10
34.607677
  20
23.066065
  0
VERTEX
  5
180
  8
Layer_3
  10
34.600075
  20
23.125666
  0
VERTEX
  5
181
  8
Layer_3
  10
34.601055
  20
23.185469
  0
VERTEX
  5
182
  8
Layer_3
  10
34.610542
  20
23.244524
  0
VERTEX
  5
183
  8
Layer_3
  10
34.628441
  20
23.301882
  0
VERTEX
  5
184
  8
Layer_3
  10
34.654675
  20
23.356588
  0
VERTEX
  5
185
  8
Layer_3
  10
34.689163
  20
23.4077
  0
VERTEX
  5
186
  8
Layer_3
  10
34.727932
  20
23.452015
  0
VERTEX
  5
187
  8
Layer_3
  10
34.770706
  20
23.491793
  0
VERTEX
  5
188
  8
Layer_3
  10
34.817081
  20
23.526821
  0
VERTEX
  5
189
  8
Layer_3
  10
34.866661
  20
23.556879
  0
VERTEX
  5
18a
  8
Layer_3
  10
34.919033
  20
23.581747
  0
VERTEX
  5
18b
  8
Layer_3
  10
34.973797
  20
23.60121
  0
VERTEX
  5
18c
  8
Layer_3
  10
35.030548
  20
23.615049
  0
VERTEX
  5
18d
  8
Layer_3
  10
35.088882
  20
23.623047
  0
VERTEX
  5
18e
  8
Layer_3
  10
37.879169
  20
23.913141
  0
SEQEND
  0
POLYLINE
  5
190
  8
Layer_0
  62
4
  66
1
  10
0
  20
0
  30
0
  0
VERTEX
  5
190
  8
Layer_0
  10
37.848755
  20
23.220221
  0
VERTEX
  5
191
  8
Layer_0
  10
40.524586
  20
23.229101
  0
VERTEX
  5
192
  8
Layer_0
  10
40.533482
  20
22.562828
  0
SEQEND
  0
POLYLINE
  5
194
  8
Layer_0
  62
4
  66
1
  10
0
  20
0
  30
0
  0
VERTEX
  5
194
  8
Layer_0
  10
37.866539
  20
22.482878
  0
VERTEX
  5
195
  8
Layer_0
  10
40.533482
  20
22.767155
  0
SEQEND
  0
POLYLINE
  5
197
  8
Layer_0
  62
4
  66
1
  10
0
  20
0
  30
0
  0
VERTEX
  5
197
  8
Layer_0
  10
40.542366
  20
22.900408
  0
VERTEX
  5
198
  8
Layer_0
  10
41.066868
  20
22.900408
  0
SEQEND
  0
POLYLINE
  5
19a
  8
Layer_0
  62
4
  66
1
  10
0
  20
0
  30
0
  0
VERTEX
  5
19a
  8
Layer_0
  10
40.791286
  20
23.575565
  0
VERTEX
  5
19b
  8
Layer_0
  10
40.782394
  20
23.078079
  0
SEQEND
  0
POLYLINE
  5
19d
  8
Layer_0
  62
4
  66
1
  10
0
  20
0
  30
0
  0
VERTEX
  5
19d
  8
Layer_0
  10
40.586819
  20
23.602219
  0
VERTEX
  5
19e
  8
Layer_0
  10
40.586819
  20
23.300171
  0
SEQEND
  0
POLYLINE
  5
1a0
  8
Layer_0
  62
4
  66
1
  10
0
  20
0
  30
0
  0
VERTEX
  5
1a0
  8
Layer_0
  10
40.311237
  20
23.646635
  0
VERTEX
  5
1a1
  8
Layer_0
  10
40.302341
  20
23.326824
  0
SEQEND
  0
POLYLINE
  5
1a3
  8
Layer_0
  62
4
  66
1
  10
0
  20
0
  30
0
  0
VERTEX
  5
1a3
  8
Layer_0
  10
39.911194
  20
23.699938
  0
VERTEX
  5
1a4
  8
Layer_0
  10
39.920082
  20
23.309055
  0
SEQEND
  0
POLYLINE
  5
1a6
  8
Layer_0
  62
4
  66
1
  10
0
  20
0
  30
0
  0
VERTEX
  5
1a6
  8
Layer_0
  10
39.59116
  20
23.717703
  0
VERTEX
  5
1a7
  8
Layer_0
  10
39.59116
  20
23.344593
  0
SEQEND
  0
POLYLINE
  5
1a9
  8
Layer_0
  62
4
  66
1
  10
0
  20
0
  30
0
  0
VERTEX
  5
1a9
  8
Layer_0
  10
39.208897
  20
23.771008
  0
VERTEX
  5
1aa
  8
Layer_0
  10
39.217785
  20
23.344593
  0
SEQEND
  0
POLYLINE
  5
1ac
  8
Layer_0
  62
4
  66
1
  10
0
  20
0
  30
0
  0
VERTEX
  5
1ac
  8
Layer_0
  10
38.85331
  20
23.80654
  0
VERTEX
  5
1ad
  8
Layer_0
  10
38.871086
  20
23.344593
  0
SEQEND
  0
POLYLINE
  5
1af
  8
Layer_0
  62
4
  66
1
  10
0
  20
0
  30
0
  0
VERTEX
  5
1af
  8
Layer_0
  10
38.533272
  20
23.842072
  0
VERTEX
  5
1b0
  8
Layer_0
  10
38.604389
  20
23.237988
  0
SEQEND
  0
POLYLINE
  5
1b2
  8
Layer_0
  62
4
  66
1
  10
0
  20
0
  30
0
  0
VERTEX
  5
1b2
  8
Layer_0
  10
37.990997
  20
23.664402
  0
VERTEX
  5
1b3
  8
Layer_0
  10
38.871086
  20
23.611099
  0
SEQEND
  0
POLYLINE
  5
1b5
  8
Layer_0
  62
4
  66
1
  10
0
  20
0
  30
0
  0
VERTEX
  5
1b5
  8
Layer_0
  10
38.328812
  20
23.646635
  0
VERTEX
  5
1b6
  8
Layer_0
  10
38.328812
  20
23.273523
  0
SEQEND
  0
POLYLINE
  5
1b8
  8
Layer_0
  62
4
  66
1
  10
0
  20
0
  30
0
  0
VERTEX
  5
1b8
  8
Layer_0
  10
37.870277
  20
23.220221
  0
VERTEX
  5
1b9
  8
Layer_0
  10
35.194443
  20
23.229101
  0
VERTEX
  5
1ba
  8
Layer_0
  10
35.185558
  20
22.562828
  0
SEQEND
  0
POLYLINE
  5
1bc
  8
Layer_0
  62
4
  66
1
  10
0
  20
0
  30
0
  0
VERTEX
  5
1bc
  8
Layer_0
  10
37.852501
  20
22.482878
  0
VERTEX
  5
1bd
  8
Layer_0
  10
35.185558
  20
22.767155
  0
SEQEND
  0
POLYLINE
  5
1bf
  8
Layer_0
  62
4
  66
1
  10
0
  20
0
  30
0
  0
VERTEX
  5
1bf
  8
Layer_0
  10
35.176666
  20
22.900408
  0
VERTEX
  5
1c0
  8
Layer_0
  10
34.652168
  20
22.900408
  0
SEQEND
  0
POLYLINE
  5
1c2
  8
Layer_0
  62
4
  66
1
  10
0
  20
0
  30
0
  0
VERTEX
  5
1c2
  8
Layer_0
  10
34.927753
  20
23.575565
  0
VERTEX
  5
1c3
  8
Layer_0
  10
34.936646
  20
23.078079
  0
SEQEND
  0
POLYLINE
  5
1c5
  8
Layer_0
  62
4
  66
1
  10
0
  20
0
  30
0
  0
VERTEX
  5
1c5
  8
Layer_0
  10
35.132221
  20
23.602219
  0
VERTEX
  5
1c6
  8
Layer_0
  10
35.132221
  20
23.300171
  0
SEQEND
  0
POLYLINE
  5
1c8
  8
Layer_0
  62
4
  66
1
  10
0
  20
0
  30
0
  0
VERTEX
  5
1c8
  8
Layer_0
  10
35.407803
  20
23.646635
  0
VERTEX
  5
1c9
  8
Layer_0
  10
35.416695
  20
23.326824
  0
SEQEND
  0
POLYLINE
  5
1cb
  8
Layer_0
  62
4
  66
1
  10
0
  20
0
  30
0
  0
VERTEX
  5
1cb
  8
Layer_0
  10
35.807842
  20
23.699938
  0
VERTEX
  5
1cc
  8
Layer_0
  10
35.79895
  20
23.309055
  0
SEQEND
  0
POLYLINE
  5
1ce
  8
Layer_0
  62
4
  66
1
  10
0
  20
0
  30
0
  0
VERTEX
  5
1ce
  8
Layer_0
  10
36.127872
  20
23.717703
  0
VERTEX
  5
1cf
  8
Layer_0
  10
36.127872
  20
23.344593
  0
SEQEND
  0
POLYLINE
  5
1d1
  8
Layer_0
  62
4
  66
1
  10
0
  20
0
  30
0
  0
VERTEX
  5
1d1
  8
Layer_0
  10
36.510136
  20
23.771008
  0
VERTEX
  5
1d2
  8
Layer_0
  10
36.501247
  20
23.344593
  0
SEQEND
  0
POLYLINE
  5
1d4
  8
Layer_0
  62
4
  66
1
  10
0
  20
0
  30
0
  0
VERTEX
  5
1d4
  8
Layer_0
  10
36.86573
  20
23.80654
  0
VERTEX
  5
1d5
  8
Layer_0
  10
36.847946
  20
23.344593
  0
SEQEND
  0
POLYLINE
  5
1d7
  8
Layer_0
  62
4
  66
1
  10
0
  20
0
  30
0
  0
VERTEX
  5
1d7
  8
Layer_0
  10
37.18576
  20
23.842072
  0
VERTEX
  5
1d8
  8
Layer_0
  10
37.114643
  20
23.237988
  0
SEQEND
  0
POLYLINE
  5
1da
  8
Layer_0
  62
4
  66
1
  10
0
  20
0
  30
0
  0
VERTEX
  5
1da
  8
Layer_0
  10
37.728043
  20
23.664402
  0
VERTEX
  5
1db
  8
Layer_0
  10
36.847946
  20
23.611099
  0
SEQEND
  0
POLYLINE
  5
1dd
  8
Layer_0
  62
4
  66
1
  10
0
  20
0
  30
0
  0
VERTEX
  5
1dd
  8
Layer_0
  10
37.390228
  20
23.646635
  0
VERTEX
  5
1de
  8
Layer_0
  10
37.390228
  20
23.273523
  0
SEQEND
  0
POLYLINE
  5
1e0
  8
Layer_0
  62
4
  66
1
  10
0
  20
0
  30
0
  0
VERTEX
  5
1e0
  8
Layer_0
  10
37.764553
  20
23.900433
  0
VERTEX
  5
1e1
  8
Layer_0
  10
37.764553
  20
22.117311
  0
SEQEND
  0
POLYLINE
  5
1e3
  8
Layer_0
  62
4
  66
1
  10
0
  20
0
  30
0
  0
VERTEX
  5
1e3
  8
Layer_0
  10
37.954636
  20
22.117311
  0
VERTEX
  5
1e4
  8
Layer_0
  10
37.954636
  20
23.900433
  0
SEQEND
  0
POLYLINE
  5
1e6
  8
Layer_3
  62
0
  66
1
  10
0
  20
0
  30
0
  0
VERTEX
  5
1e6
  8
Layer_3
  10
34.04657
  20
21.762562
  0
VERTEX
  5
1e7
  8
Layer_3
  10
38.046638
  20
21.77783
  0
SEQEND
  0
POLYLINE
  5
1e9
  8
Layer_3
  62
0
  66
1
  10
0
  20
0
  30
0
  0
VERTEX
  5
1e9
  8
Layer_3
  10
34.046448
  20
21.762552
  0
VERTEX
  5
1ea
  8
Layer_3
  10
36.026745
  20
20.905548
  0
VERTEX
  5
1eb
  8
Layer_3
  10
38.046638
  20
21.77783
  0
SEQEND
  0
POLYLINE
  5
1ed
  8
Layer_3
  62
0
  70
1
  66
1
  10
0
  20
0
  30
0
  0
VERTEX
  5
1ed
  8
Layer_3
  10
10.486744
  20
5.5839262
  0
VERTEX
  5
1ee
  8
Layer_3
  10
10.443884
  20
5.3576708
  0
VERTEX
  5
1ef
  8
Layer_3
  10
10.394595
  20
5.1343541
  0
VERTEX
  5
1f0
  8
Layer_3
  10
10.338861
  20
4.9136376
  0
VERTEX
  5
1f1
  8
Layer_3
  10
10.276638
  20
4.6951942
  0
VERTEX
  5
1f2
  8
Layer_3
  10
10.207913
  20
4.4786925
  0
VERTEX
  5
1f3
  8
Layer_3
  10
10.132653
  20
4.263803
  0
VERTEX
  5
1f4
  8
Layer_3
  10
10.050822
  20
4.0501947
  0
VERTEX
  5
1f5
  8
Layer_3
  10
9.9624081
  20
3.8375375
  0
VERTEX
  5
1f6
  8
Layer_3
  10
9.9472027
  20
3.8100741
  0
VERTEX
  5
1f7
  8
Layer_3
  10
9.9290171
  20
3.7890337
  0
VERTEX
  5
1f8
  8
Layer_3
  10
9.9057608
  20
3.7745295
  0
VERTEX
  5
1f9
  8
Layer_3
  10
9.8753586
  20
3.7666743
  0
VERTEX
  5
1fa
  8
Layer_3
  10
9.8520403
  20
3.7728281
  0
VERTEX
  5
1fb
  8
Layer_3
  10
9.8344889
  20
3.7830744
  0
VERTEX
  5
1fc
  8
Layer_3
  10
9.8193312
  20
3.7988091
  0
VERTEX
  5
1fd
  8
Layer_3
  10
9.8032169
  20
3.8214328
  0
VERTEX
  5
1fe
  8
Layer_3
  10
9.8002329
  20
3.8418531
  0
VERTEX
  5
1ff
  8
Layer_3
  10
9.8023424
  20
3.8634751
  0
VERTEX
  5
200
  8
Layer_3
  10
9.8036833
  20
3.8779504
  0
VERTEX
  5
201
  8
Layer_3
  10
9.805418
  20
3.8930554
  0
VERTEX
  5
202
  8
Layer_3
  10
9.8089123
  20
3.9116759
  0
VERTEX
  5
203
  8
Layer_3
  10
9.8155298
  20
3.9367051
  0
VERTEX
  5
204
  8
Layer_3
  10
9.8575001
  20
4.1561337
  0
VERTEX
  5
205
  8
Layer_3
  10
9.9077406
  20
4.3738804
  0
VERTEX
  5
206
  8
Layer_3
  10
9.9661522
  20
4.5896301
  0
VERTEX
  5
207
  8
Layer_3
  10
10.032622
  20
4.8030605
  0
VERTEX
  5
208
  8
Layer_3
  10
10.107042
  20
5.0138483
  0
VERTEX
  5
209
  8
Layer_3
  10
10.18931
  20
5.221673
  0
VERTEX
  5
20a
  8
Layer_3
  10
10.279305
  20
5.4262176
  0
VERTEX
  5
20b
  8
Layer_3
  10
10.376947
  20
5.6271529
  0
VERTEX
  5
20c
  8
Layer_3
  10
10.343441
  20
5.6476698
  0
VERTEX
  5
20d
  8
Layer_3
  10
10.312173
  20
5.6707859
  0
VERTEX
  5
20e
  8
Layer_3
  10
10.283247
  20
5.6963053
  0
VERTEX
  5
20f
  8
Layer_3
  10
10.256766
  20
5.7240381
  0
VERTEX
  5
210
  8
Layer_3
  10
10.232822
  20
5.7537889
  0
VERTEX
  5
211
  8
Layer_3
  10
10.211514
  20
5.7853689
  0
VERTEX
  5
212
  8
Layer_3
  10
10.192953
  20
5.8185802
  0
VERTEX
  5
213
  8
Layer_3
  10
10.177228
  20
5.8532357
  0
VERTEX
  5
214
  8
Layer_3
  10
10.164449
  20
5.8891382
  0
VERTEX
  5
215
  8
Layer_3
  10
10.154708
  20
5.9260955
  0
VERTEX
  5
216
  8
Layer_3
  10
10.148099
  20
5.9639182
  0
VERTEX
  5
217
  8
Layer_3
  10
10.144735
  20
6.002409
  0
VERTEX
  5
218
  8
Layer_3
  10
10.144711
  20
6.0413752
  0
VERTEX
  5
219
  8
Layer_3
  10
10.148124
  20
6.0806298
  0
VERTEX
  5
21a
  8
Layer_3
  10
10.155073
  20
6.119976
  0
VERTEX
  5
21b
  8
Layer_3
  10
10.16566
  20
6.1592236
  0
VERTEX
  5
21c
  8
Layer_3
  10
10.179511
  20
6.1969476
  0
VERTEX
  5
21d
  8
Layer_3
  10
10.196332
  20
6.2326894
  0
VERTEX
  5
21e
  8
Layer_3
  10
10.215935
  20
6.2663641
  0
VERTEX
  5
21f
  8
Layer_3
  10
10.238114
  20
6.2978816
  0
VERTEX
  5
220
  8
Layer_3
  10
10.063415
  20
6.449018
  0
VERTEX
  5
221
  8
Layer_3
  10
9.893568
  20
6.6050062
  0
VERTEX
  5
222
  8
Layer_3
  10
9.72861
  20
6.7657762
  0
VERTEX
  5
223
  8
Layer_3
  10
9.5685682
  20
6.931263
  0
VERTEX
  5
224
  8
Layer_3
  10
9.413476
  20
7.1014023
  0
VERTEX
  5
225
  8
Layer_3
  10
9.2633591
  20
7.2761259
  0
VERTEX
  5
226
  8
Layer_3
  10
9.1182537
  20
7.4553771
  0
VERTEX
  5
227
  8
Layer_3
  10
8.9781847
  20
7.6390834
  0
VERTEX
  5
228
  8
Layer_3
  10
8.9620609
  20
7.6660252
  0
VERTEX
  5
229
  8
Layer_3
  10
8.953002
  20
7.6923184
  0
VERTEX
  5
22a
  8
Layer_3
  10
8.952137
  20
7.7197099
  0
VERTEX
  5
22b
  8
Layer_3
  10
8.9606047
  20
7.7499461
  0
VERTEX
  5
22c
  8
Layer_3
  10
8.9776325
  20
7.7670217
  0
VERTEX
  5
22d
  8
Layer_3
  10
8.9953089
  20
7.7770567
  0
VERTEX
  5
22e
  8
Layer_3
  10
9.0165215
  20
7.7822614
  0
VERTEX
  5
22f
  8
Layer_3
  10
9.0441847
  20
7.7848349
  0
VERTEX
  5
230
  8
Layer_3
  10
9.0633411
  20
7.7771668
  0
VERTEX
  5
231
  8
Layer_3
  10
9.0809736
  20
7.7644892
  0
VERTEX
  5
232
  8
Layer_3
  10
9.0928211
  20
7.7560596
  0
VERTEX
  5
233
  8
Layer_3
  10
9.1050177
  20
7.746974
  0
VERTEX
  5
234
  8
Layer_3
  10
9.1193686
  20
7.734601
  0
VERTEX
  5
235
  8
Layer_3
  10
9.1376886
  20
7.7163143
  0
VERTEX
  5
236
  8
Layer_3
  10
9.3064442
  20
7.5697145
  0
VERTEX
  5
237
  8
Layer_3
  10
9.4697104
  20
7.4165888
  0
VERTEX
  5
238
  8
Layer_3
  10
9.6272287
  20
7.2572675
  0
VERTEX
  5
239
  8
Layer_3
  10
9.7787361
  20
7.0920739
  0
VERTEX
  5
23a
  8
Layer_3
  10
9.9239655
  20
6.921329
  0
VERTEX
  5
23b
  8
Layer_3
  10
10.062654
  20
6.745358
  0
VERTEX
  5
23c
  8
Layer_3
  10
10.194534
  20
6.5644803
  0
VERTEX
  5
23d
  8
Layer_3
  10
10.319353
  20
6.3790245
  0
VERTEX
  5
23e
  8
Layer_3
  10
10.363678
  20
6.4093666
  0
VERTEX
  5
23f
  8
Layer_3
  10
10.41119
  20
6.4342494
  0
VERTEX
  5
240
  8
Layer_3
  10
10.461354
  20
6.4533863
  0
VERTEX
  5
241
  8
Layer_3
  10
10.513633
  20
6.4664946
  0
VERTEX
  5
242
  8
Layer_3
  10
10.567488
  20
6.4732881
  0
VERTEX
  5
243
  8
Layer_3
  10
10.622391
  20
6.4734802
  0
VERTEX
  5
244
  8
Layer_3
  10
10.677798
  20
6.4667878
  0
VERTEX
  5
245
  8
Layer_3
  10
10.733171
  20
6.4529252
  0
VERTEX
  5
246
  8
Layer_3
  10
10.791838
  20
6.4296789
  0
VERTEX
  5
247
  8
Layer_3
  10
10.845375
  20
6.3993006
  0
VERTEX
  5
248
  8
Layer_3
  10
10.893415
  20
6.3625212
  0
VERTEX
  5
249
  8
Layer_3
  10
10.935616
  20
6.3200846
  0
VERTEX
  5
24a
  8
Layer_3
  10
10.971613
  20
6.2727275
  0
VERTEX
  5
24b
  8
Layer_3
  10
11.001049
  20
6.2211885
  0
VERTEX
  5
24c
  8
Layer_3
  10
11.023574
  20
6.1662087
  0
VERTEX
  5
24d
  8
Layer_3
  10
11.038833
  20
6.1085234
  0
VERTEX
  5
24e
  8
Layer_3
  10
11.254623
  20
6.1903105
  0
VERTEX
  5
24f
  8
Layer_3
  10
11.471976
  20
6.2654753
  0
VERTEX
  5
250
  8
Layer_3
  10
11.69095
  20
6.3340435
  0
VERTEX
  5
251
  8
Layer_3
  10
11.911607
  20
6.396028
  0
VERTEX
  5
252
  8
Layer_3
  10
12.134001
  20
6.4514499
  0
VERTEX
  5
253
  8
Layer_3
  10
12.358197
  20
6.5003209
  0
VERTEX
  5
254
  8
Layer_3
  10
12.584248
  20
6.542666
  0
VERTEX
  5
255
  8
Layer_3
  10
12.812222
  20
6.5784965
  0
VERTEX
  5
256
  8
Layer_3
  10
12.843585
  20
6.5798688
  0
VERTEX
  5
257
  8
Layer_3
  10
12.871022
  20
6.5753393
  0
VERTEX
  5
258
  8
Layer_3
  10
12.895532
  20
6.5630746
  0
VERTEX
  5
259
  8
Layer_3
  10
12.9181
  20
6.5412412
  0
VERTEX
  5
25a
  8
Layer_3
  10
12.925029
  20
6.5181437
  0
VERTEX
  5
25b
  8
Layer_3
  10
12.925454
  20
6.4978247
  0
VERTEX
  5
25c
  8
Layer_3
  10
12.919941
  20
6.4766855
  0
VERTEX
  5
25d
  8
Layer_3
  10
12.909051
  20
6.4511275
  0
VERTEX
  5
25e
  8
Layer_3
  10
12.893196
  20
6.4379234
  0
VERTEX
  5
25f
  8
Layer_3
  10
12.873655
  20
6.4284368
  0
VERTEX
  5
260
  8
Layer_3
  10
12.860607
  20
6.4220233
  0
VERTEX
  5
261
  8
Layer_3
  10
12.846817
  20
6.415617
  0
VERTEX
  5
262
  8
Layer_3
  10
12.829109
  20
6.408874
  0
VERTEX
  5
263
  8
Layer_3
  10
12.804306
  20
6.401454
  0
VERTEX
  5
264
  8
Layer_3
  10
12.594288
  20
6.3227139
  0
VERTEX
  5
265
  8
Layer_3
  10
12.379819
  20
6.2519031
  0
VERTEX
  5
266
  8
Layer_3
  10
12.16175
  20
6.1890993
  0
VERTEX
  5
267
  8
Layer_3
  10
11.940935
  20
6.1343794
  0
VERTEX
  5
268
  8
Layer_3
  10
11.718222
  20
6.0878196
  0
VERTEX
  5
269
  8
Layer_3
  10
11.49446
  20
6.0494995
  0
VERTEX
  5
26a
  8
Layer_3
  10
11.270502
  20
6.0194964
  0
VERTEX
  5
26b
  8
Layer_3
  10
11.047195
  20
5.9978867
  0
VERTEX
  5
26c
  8
Layer_3
  10
11.044824
  20
5.9697909
  0
VERTEX
  5
26d
  8
Layer_3
  10
11.040717
  20
5.9416285
  0
VERTEX
  5
26e
  8
Layer_3
  10
11.034767
  20
5.9134755
  0
VERTEX
  5
26f
  8
Layer_3
  10
11.026871
  20
5.8854089
  0
VERTEX
  5
270
  8
Layer_3
  10
11.011343
  20
5.843698
  0
VERTEX
  5
271
  8
Layer_3
  10
10.992201
  20
5.8044243
  0
VERTEX
  5
272
  8
Layer_3
  10
10.9697
  20
5.7677217
  0
VERTEX
  5
273
  8
Layer_3
  10
10.944092
  20
5.7337146
  0
VERTEX
  5
274
  8
Layer_3
  10
10.915628
  20
5.702539
  0
VERTEX
  5
275
  8
Layer_3
  10
10.884565
  20
5.6743231
  0
VERTEX
  5
276
  8
Layer_3
  10
10.851157
  20
5.6492028
  0
VERTEX
  5
277
  8
Layer_3
  10
10.815651
  20
5.6272998
  0
VERTEX
  5
278
  8
Layer_3
  10
10.778309
  20
5.6087561
  0
VERTEX
  5
279
  8
Layer_3
  10
10.739386
  20
5.593699
  0
VERTEX
  5
27a
  8
Layer_3
  10
10.699126
  20
5.5822587
  0
VERTEX
  5
27b
  8
Layer_3
  10
10.657791
  20
5.5745668
  0
VERTEX
  5
27c
  8
Layer_3
  10
10.615633
  20
5.5707555
  0
VERTEX
  5
27d
  8
Layer_3
  10
10.572899
  20
5.57096
  0
VERTEX
  5
27e
  8
Layer_3
  10
10.529858
  20
5.5753069
  0
VERTEX
  5
27f
  8
Layer_3
  10
10.486744
  20
5.5839262
  0
SEQEND
  0
POLYLINE
  5
281
  8
Layer_2
  62
206
  70
1
  66
1
  10
0
  20
0
  30
0
  0
VERTEX
  5
281
  8
Layer_2
  10
10.552071
  20
6.0317802
  0
VERTEX
  5
282
  8
Layer_2
  10
10.557732
  20
6.0415049
  0
VERTEX
  5
283
  8
Layer_2
  10
10.56682
  20
6.0480266
  0
VERTEX
  5
284
  8
Layer_2
  10
10.578099
  20
6.0507851
  0
VERTEX
  5
285
  8
Layer_2
  10
10.59034
  20
6.049221
  0
VERTEX
  5
286
  8
Layer_2
  10
10.601234
  20
6.0434322
  0
VERTEX
  5
287
  8
Layer_2
  10
10.608852
  20
6.0346637
  0
VERTEX
  5
288
  8
Layer_2
  10
10.612505
  20
6.0240884
  0
VERTEX
  5
289
  8
Layer_2
  10
10.61151
  20
6.0128784
  0
VERTEX
  5
28a
  8
Layer_2
  10
10.605848
  20
6.0031538
  0
VERTEX
  5
28b
  8
Layer_2
  10
10.596761
  20
5.9966321
  0
VERTEX
  5
28c
  8
Layer_2
  10
10.585481
  20
5.9938736
  0
VERTEX
  5
28d
  8
Layer_2
  10
10.57324
  20
5.9954376
  0
VERTEX
  5
28e
  8
Layer_2
  10
10.562346
  20
6.0012264
  0
VERTEX
  5
28f
  8
Layer_2
  10
10.554728
  20
6.009995
  0
VERTEX
  5
290
  8
Layer_2
  10
10.551076
  20
6.0205703
  0
VERTEX
  5
291
  8
Layer_2
  10
10.552071
  20
6.0317802
  0
SEQEND
  0
POLYLINE
  5
293
  8
Layer_1
  62
1
  66
1
  10
0
  20
0
  30
0
  0
VERTEX
  5
293
  8
Layer_1
  10
35.987793
  20
26.633469
  0
VERTEX
  5
294
  8
Layer_1
  10
35.982864
  20
27.382801
  0
SEQEND
  0
POLYLINE
  5
296
  8
Layer_1
  62
1
  66
1
  10
0
  20
0
  30
0
  0
VERTEX
  5
296
  8
Layer_1
  10
30.296238
  20
26.631077
  0
VERTEX
  5
297
  8
Layer_1
  10
30.300531
  20
27.380409
  0
SEQEND
  0
POLYLINE
  5
299
  8
Layer_2
  62
206
  66
1
  10
0
  20
0
  30
0
  0
VERTEX
  5
299
  8
Layer_2
  10
31.247757
  20
18.018623
  0
VERTEX
  5
29a
  8
Layer_2
  10
34.651592
  20
18.020025
  0
SEQEND
  0
POLYLINE
  5
29c
  8
Layer_0
  62
4
  66
1
  10
0
  20
0
  30
0
  0
VERTEX
  5
29c
  8
Layer_0
  10
33.52766
  20
19.467188
  0
VERTEX
  5
29d
  8
Layer_0
  10
33.524857
  20
18.203939
  0
SEQEND
  0
POLYLINE
  5
29f
  8
Layer_0
  62
4
  66
1
  10
0
  20
0
  30
0
  0
VERTEX
  5
29f
  8
Layer_0
  10
35.020248
  20
19.639566
  0
VERTEX
  5
2a0
  8
Layer_0
  10
35.055515
  20
17.978222
  0
SEQEND
  0
POLYLINE
  5
2a2
  8
Layer_0
  62
4
  66
1
  10
0
  20
0
  30
0
  0
VERTEX
  5
2a2
  8
Layer_0
  10
36.641842
  20
19.540682
  0
VERTEX
  5
2a3
  8
Layer_0
  10
36.638065
  20
18.134266
  0
SEQEND
  0
POLYLINE
  5
2a5
  8
Layer_0
  62
4
  66
1
  10
0
  20
0
  30
0
  0
VERTEX
  5
2a5
  8
Layer_0
  10
38.304333
  20
18.313675
  0
VERTEX
  5
2a6
  8
Layer_0
  10
38.351311
  20
19.787003
  0
VERTEX
  5
2a7
  8
Layer_0
  10
38.212925
  20
19.86727
  0
SEQEND
  0
POLYLINE
  5
2a9
  8
Layer_0
  62
4
  66
1
  10
0
  20
0
  30
0
  0
VERTEX
  5
2a9
  8
Layer_0
  10
38.350639
  20
19.777674
  0
VERTEX
  5
2aa
  8
Layer_0
  10
39.199387
  20
19.703011
  0
VERTEX
  5
2ab
  8
Layer_0
  10
40.348076
  20
19.706148
  0
SEQEND
  0
POLYLINE
  5
2ad
  8
Layer_0
  62
4
  66
1
  10
0
  20
0
  30
0
  0
VERTEX
  5
2ad
  8
Layer_0
  10
39.602085
  20
20.774763
  0
VERTEX
  5
2ae
  8
Layer_0
  10
40.095562
  20
20.767265
  0
SEQEND
  0
POLYLINE
  5
2b0
  8
Layer_0
  62
4
  66
1
  10
0
  20
0
  30
0
  0
VERTEX
  5
2b0
  8
Layer_0
  10
39.380524
  20
20.554867
  0
VERTEX
  5
2b1
  8
Layer_0
  10
40.170094
  20
20.542871
  0
SEQEND
  0
POLYLINE
  5
2b3
  8
Layer_0
  62
4
  66
1
  10
0
  20
0
  30
0
  0
VERTEX
  5
2b3
  8
Layer_0
  10
39.371704
  20
20.316168
  0
VERTEX
  5
2b4
  8
Layer_0
  10
40.29121
  20
20.307386
  0
SEQEND
  0
POLYLINE
  5
2b6
  8
Layer_0
  62
4
  66
1
  10
0
  20
0
  30
0
  0
VERTEX
  5
2b6
  8
Layer_0
  10
39.377514
  20
20.014936
  0
VERTEX
  5
2b7
  8
Layer_0
  10
40.10994
  20
20.003807
  0
SEQEND
  0
POLYLINE
  5
2b9
  8
Layer_0
  62
4
  66
1
  10
0
  20
0
  30
0
  0
VERTEX
  5
2b9
  8
Layer_0
  10
40.057301
  20
20.300558
  0
VERTEX
  5
2ba
  8
Layer_0
  10
40.13134
  20
19.702341
  0
SEQEND
  0
POLYLINE
  5
2bc
  8
Layer_0
  62
4
  66
1
  10
0
  20
0
  30
0
  0
VERTEX
  5
2bc
  8
Layer_0
  10
36.082851
  20
19.575302
  0
VERTEX
  5
2bd
  8
Layer_0
  10
36.092281
  20
20.222561
  0
SEQEND
  0
POLYLINE
  5
2bf
  8
Layer_0
  62
4
  66
1
  10
0
  20
0
  30
0
  0
VERTEX
  5
2bf
  8
Layer_0
  10
33.273697
  20
19.882757
  0
VERTEX
  5
2c0
  8
Layer_0
  10
33.267124
  20
19.450325
  0
SEQEND
  0
POLYLINE
  5
2c2
  8
Layer_2
  62
206
  66
1
  10
0
  20
0
  30
0
  0
VERTEX
  5
2c2
  8
Layer_2
  10
34.651394
  20
18.189955
  0
VERTEX
  5
2c3
  8
Layer_2
  10
31.24762
  20
18.188608
  0
SEQEND
  0
POLYLINE
  5
2c5
  8
Layer_2
  62
206
  66
1
  10
0
  20
0
  30
0
  0
VERTEX
  5
2c5
  8
Layer_2
  10
31.24762
  20
18.188608
  0
VERTEX
  5
2c6
  8
Layer_2
  10
31.247593
  20
18.018614
  0
SEQEND
  0
POLYLINE
  5
2c8
  8
Layer_2
  62
206
  66
1
  10
0
  20
0
  30
0
  0
VERTEX
  5
2c8
  8
Layer_2
  10
34.651394
  20
18.189955
  0
VERTEX
  5
2c9
  8
Layer_2
  10
34.651405
  20
18.020012
  0
SEQEND
  0
POLYLINE
  5
2cb
  8
Layer_0
  62
4
  66
1
  10
0
  20
0
  30
0
  0
VERTEX
  5
2cb
  8
Layer_0
  10
33.200954
  20
19.457907
  0
VERTEX
  5
2cc
  8
Layer_0
  10
33.533245
  20
19.454569
  0
VERTEX
  5
2cd
  8
Layer_0
  10
34.882534
  20
19.651323
  0
VERTEX
  5
2ce
  8
Layer_0
  10
39.205276
  20
19.380919
  0
SEQEND
  0
POLYLINE
  5
2d0
  8
Layer_0
  62
4
  66
1
  10
0
  20
0
  30
0
  0
VERTEX
  5
2d0
  8
Layer_0
  10
36.084511
  20
19.731888
  0
VERTEX
  5
2d1
  8
Layer_0
  10
35.327984
  20
19.793291
  0
VERTEX
  5
2d2
  8
Layer_0
  10
35.206245
  20
19.747086
  0
VERTEX
  5
2d3
  8
Layer_0
  10
35.082779
  20
19.70822
  0
VERTEX
  5
2d4
  8
Layer_0
  10
34.957905
  20
19.676672
  0
VERTEX
  5
2d5
  8
Layer_0
  10
34.831928
  20
19.652424
  0
VERTEX
  5
2d6
  8
Layer_0
  10
34.705173
  20
19.635452
  0
VERTEX
  5
2d7
  8
Layer_0
  10
34.577946
  20
19.625736
  0
VERTEX
  5
2d8
  8
Layer_0
  10
34.450565
  20
19.623257
  0
VERTEX
  5
2d9
  8
Layer_0
  10
34.323338
  20
19.627995
  0
VERTEX
  5
2da
  8
Layer_0
  10
34.196587
  20
19.639927
  0
VERTEX
  5
2db
  8
Layer_0
  10
34.070621
  20
19.659033
  0
VERTEX
  5
2dc
  8
Layer_0
  10
33.945755
  20
19.685291
  0
VERTEX
  5
2dd
  8
Layer_0
  10
33.822304
  20
19.718683
  0
VERTEX
  5
2de
  8
Layer_0
  10
33.700581
  20
19.759188
  0
VERTEX
  5
2df
  8
Layer_0
  10
33.580898
  20
19.806786
  0
VERTEX
  5
2e0
  8
Layer_0
  10
33.463573
  20
19.861456
  0
VERTEX
  5
2e1
  8
Layer_0
  10
33.348911
  20
19.923176
  0
SEQEND
  0
POLYLINE
  5
2e3
  8
Layer_0
  62
4
  66
1
  10
0
  20
0
  30
0
  0
VERTEX
  5
2e3
  8
Layer_0
  10
35.16132
  20
20.328171
  0
VERTEX
  5
2e4
  8
Layer_0
  10
35.211449
  20
20.197186
  0
VERTEX
  5
2e5
  8
Layer_0
  10
35.255978
  20
20.064259
  0
VERTEX
  5
2e6
  8
Layer_0
  10
35.294838
  20
19.929567
  0
VERTEX
  5
2e7
  8
Layer_0
  10
35.327984
  20
19.793291
  0
SEQEND
  0
POLYLINE
  5
2e9
  8
Layer_2
  62
206
  66
1
  10
0
  20
0
  30
0
  0
VERTEX
  5
2e9
  8
Layer_2
  10
39.207539
  20
19.240192
  0
VERTEX
  5
2ea
  8
Layer_2
  10
40.921188
  20
19.279615
  0
SEQEND
  0
POLYLINE
  5
2ec
  8
Layer_2
  62
206
  66
1
  10
0
  20
0
  30
0
  0
VERTEX
  5
2ec
  8
Layer_2
  10
39.203659
  20
19.410091
  0
VERTEX
  5
2ed
  8
Layer_2
  10
39.207539
  20
19.240196
  0
SEQEND
  0
POLYLINE
  5
2ef
  8
Layer_2
  62
206
  66
1
  10
0
  20
0
  30
0
  0
VERTEX
  5
2ef
  8
Layer_2
  10
40.917393
  20
19.44957
  0
VERTEX
  5
2f0
  8
Layer_2
  10
40.921185
  20
19.279621
  0
SEQEND
  0
POLYLINE
  5
2f2
  8
Layer_2
  62
206
  66
1
  10
0
  20
0
  30
0
  0
VERTEX
  5
2f2
  8
Layer_2
  10
40.917393
  20
19.44957
  0
VERTEX
  5
2f3
  8
Layer_2
  10
39.203659
  20
19.410091
  0
SEQEND
  0
POLYLINE
  5
2f5
  8
Layer_2
  62
206
  70
1
  66
1
  10
0
  20
0
  30
0
  0
VERTEX
  5
2f5
  8
Layer_2
  10
31.071814
  20
19.01157
  0
VERTEX
  5
2f6
  8
Layer_2
  10
29.571985
  20
19.034357
  0
VERTEX
  5
2f7
  8
Layer_2
  10
29.575176
  20
19.244335
  0
VERTEX
  5
2f8
  8
Layer_2
  10
31.075003
  20
19.221548
  0
VERTEX
  5
2f9
  8
Layer_2
  10
31.071814
  20
19.01157
  0
SEQEND
  0
POLYLINE
  5
2fb
  8
Layer_2
  62
206
  70
1
  66
1
  10
0
  20
0
  30
0
  0
VERTEX
  5
2fb
  8
Layer_2
  10
44.123482
  20
17.073498
  0
VERTEX
  5
2fc
  8
Layer_2
  10
45.623482
  20
17.073498
  0
VERTEX
  5
2fd
  8
Layer_2
  10
45.623482
  20
16.903524
  0
VERTEX
  5
2fe
  8
Layer_2
  10
44.123482
  20
16.903524
  0
VERTEX
  5
2ff
  8
Layer_2
  10
44.123482
  20
17.073498
  0
SEQEND
  0
POLYLINE
  5
301
  8
Layer_0
  62
4
  66
1
  10
0
  20
0
  30
0
  0
VERTEX
  5
301
  8
Layer_0
  10
39.889168
  20
21.319965
  0
VERTEX
  5
302
  8
Layer_0
  10
39.432053
  20
21.32691
  0
SEQEND
  0
POLYLINE
  5
304
  8
Layer_0
  62
4
  66
1
  10
0
  20
0
  30
0
  0
VERTEX
  5
304
  8
Layer_0
  10
39.316048
  20
21.557125
  0
VERTEX
  5
305
  8
Layer_0
  10
39.747112
  20
21.545382
  0
SEQEND
  0
POLYLINE
  5
307
  8
Layer_3
  62
0
  70
1
  66
1
  10
0
  20
0
  30
0
  0
VERTEX
  5
307
  8
Layer_3
  10
29.54434
  20
19.714802
  0
VERTEX
  5
308
  8
Layer_3
  10
29.487213
  20
19.716627
  0
VERTEX
  5
309
  8
Layer_3
  10
29.431625
  20
19.709414
  0
VERTEX
  5
30a
  8
Layer_3
  10
29.378494
  20
19.693687
  0
VERTEX
  5
30b
  8
Layer_3
  10
29.328735
  20
19.669981
  0
VERTEX
  5
30c
  8
Layer_3
  10
29.283276
  20
19.638824
  0
VERTEX
  5
30d
  8
Layer_3
  10
29.243021
  20
19.600744
  0
VERTEX
  5
30e
  8
Layer_3
  10
29.208899
  20
19.556273
  0
VERTEX
  5
30f
  8
Layer_3
  10
29.181829
  20
19.505938
  0
VERTEX
  5
310
  8
Layer_3
  10
29.166588
  20
18.053175
  0
VERTEX
  5
311
  8
Layer_3
  10
29.199917
  20
18.018003
  0
VERTEX
  5
312
  8
Layer_3
  10
29.23628
  20
17.986515
  0
VERTEX
  5
313
  8
Layer_3
  10
29.27537
  20
17.958866
  0
VERTEX
  5
314
  8
Layer_3
  10
29.316874
  20
17.935213
  0
VERTEX
  5
315
  8
Layer_3
  10
29.360485
  20
17.915714
  0
VERTEX
  5
316
  8
Layer_3
  10
29.405888
  20
17.900526
  0
VERTEX
  5
317
  8
Layer_3
  10
29.45278
  20
17.889807
  0
VERTEX
  5
318
  8
Layer_3
  10
29.500851
  20
17.883709
  0
VERTEX
  5
319
  8
Layer_3
  10
34.169216
  20
17.859747
  0
VERTEX
  5
31a
  8
Layer_3
  10
38.346863
  20
18.321877
  0
VERTEX
  5
31b
  8
Layer_3
  10
39.329865
  20
18.573095
  0
VERTEX
  5
31c
  8
Layer_3
  10
41.049629
  20
18.852257
  0
VERTEX
  5
31d
  8
Layer_3
  10
41.079559
  20
18.858639
  0
VERTEX
  5
31e
  8
Layer_3
  10
41.108196
  20
18.867762
  0
VERTEX
  5
31f
  8
Layer_3
  10
41.135429
  20
18.879465
  0
VERTEX
  5
320
  8
Layer_3
  10
41.161114
  20
18.893587
  0
VERTEX
  5
321
  8
Layer_3
  10
41.18515
  20
18.909966
  0
VERTEX
  5
322
  8
Layer_3
  10
41.207409
  20
18.92844
  0
VERTEX
  5
323
  8
Layer_3
  10
41.227768
  20
18.948847
  0
VERTEX
  5
324
  8
Layer_3
  10
41.246109
  20
18.971024
  0
VERTEX
  5
325
  8
Layer_3
  10
41.262299
  20
18.99481
  0
VERTEX
  5
326
  8
Layer_3
  10
41.27623
  20
19.020046
  0
VERTEX
  5
327
  8
Layer_3
  10
41.287777
  20
19.046566
  0
VERTEX
  5
328
  8
Layer_3
  10
41.296814
  20
19.074213
  0
VERTEX
  5
329
  8
Layer_3
  10
41.303226
  20
19.102821
  0
VERTEX
  5
32a
  8
Layer_3
  10
41.306889
  20
19.132229
  0
VERTEX
  5
32b
  8
Layer_3
  10
41.307678
  20
19.162279
  0
VERTEX
  5
32c
  8
Layer_3
  10
41.30547
  20
19.192802
  0
VERTEX
  5
32d
  8
Layer_3
  10
41.294678
  20
19.241451
  0
VERTEX
  5
32e
  8
Layer_3
  10
41.275269
  20
19.285843
  0
VERTEX
  5
32f
  8
Layer_3
  10
41.248264
  20
19.325146
  0
VERTEX
  5
330
  8
Layer_3
  10
41.214672
  20
19.358526
  0
VERTEX
  5
331
  8
Layer_3
  10
41.17551
  20
19.385145
  0
VERTEX
  5
332
  8
Layer_3
  10
41.131779
  20
19.404171
  0
VERTEX
  5
333
  8
Layer_3
  10
41.084503
  20
19.414766
  0
VERTEX
  5
334
  8
Layer_3
  10
41.034691
  20
19.4161
  0
VERTEX
  5
335
  8
Layer_3
  10
40.581169
  20
19.469959
  0
VERTEX
  5
336
  8
Layer_3
  10
40.535168
  20
19.479631
  0
VERTEX
  5
337
  8
Layer_3
  10
40.492611
  20
19.496864
  0
VERTEX
  5
338
  8
Layer_3
  10
40.454224
  20
19.520891
  0
VERTEX
  5
339
  8
Layer_3
  10
40.420719
  20
19.550945
  0
VERTEX
  5
33a
  8
Layer_3
  10
40.392818
  20
19.586262
  0
VERTEX
  5
33b
  8
Layer_3
  10
40.371239
  20
19.626078
  0
VERTEX
  5
33c
  8
Layer_3
  10
40.356697
  20
19.669626
  0
VERTEX
  5
33d
  8
Layer_3
  10
40.349915
  20
19.716141
  0
VERTEX
  5
33e
  8
Layer_3
  10
40.335598
  20
19.918514
  0
VERTEX
  5
33f
  8
Layer_3
  10
40.315285
  20
20.120235
  0
VERTEX
  5
340
  8
Layer_3
  10
40.288986
  20
20.321175
  0
VERTEX
  5
341
  8
Layer_3
  10
40.256729
  20
20.521202
  0
VERTEX
  5
342
  8
Layer_3
  10
40.218544
  20
20.720179
  0
VERTEX
  5
343
  8
Layer_3
  10
40.174446
  20
20.917976
  0
VERTEX
  5
344
  8
Layer_3
  10
40.124462
  20
21.114462
  0
VERTEX
  5
345
  8
Layer_3
  10
40.068615
  20
21.309502
  0
VERTEX
  5
346
  8
Layer_3
  10
40.046234
  20
21.372446
  0
VERTEX
  5
347
  8
Layer_3
  10
40.018417
  20
21.43194
  0
VERTEX
  5
348
  8
Layer_3
  10
39.985531
  20
21.487774
  0
VERTEX
  5
349
  8
Layer_3
  10
39.947929
  20
21.539734
  0
VERTEX
  5
34a
  8
Layer_3
  10
39.905979
  20
21.587606
  0
VERTEX
  5
34b
  8
Layer_3
  10
39.860043
  20
21.63118
  0
VERTEX
  5
34c
  8
Layer_3
  10
39.810482
  20
21.670242
  0
VERTEX
  5
34d
  8
Layer_3
  10
39.75766
  20
21.704578
  0
VERTEX
  5
34e
  8
Layer_3
  10
39.701939
  20
21.733976
  0
VERTEX
  5
34f
  8
Layer_3
  10
39.643681
  20
21.758221
  0
VERTEX
  5
350
  8
Layer_3
  10
39.583244
  20
21.777103
  0
VERTEX
  5
351
  8
Layer_3
  10
39.521
  20
21.790411
  0
VERTEX
  5
352
  8
Layer_3
  10
39.457306
  20
21.797934
  0
VERTEX
  5
353
  8
Layer_3
  10
39.392525
  20
21.799446
  0
VERTEX
  5
354
  8
Layer_3
  10
39.327015
  20
21.794748
  0
VERTEX
  5
355
  8
Layer_3
  10
39.261143
  20
21.783623
  0
VERTEX
  5
356
  8
Layer_3
  10
39.19442
  20
21.769213
  0
VERTEX
  5
357
  8
Layer_3
  10
39.129154
  20
21.750124
  0
VERTEX
  5
358
  8
Layer_3
  10
39.065582
  20
21.726473
  0
VERTEX
  5
359
  8
Layer_3
  10
39.003937
  20
21.698383
  0
VERTEX
  5
35a
  8
Layer_3
  10
38.944458
  20
21.665962
  0
VERTEX
  5
35b
  8
Layer_3
  10
38.887371
  20
21.629332
  0
VERTEX
  5
35c
  8
Layer_3
  10
38.832912
  20
21.588606
  0
VERTEX
  5
35d
  8
Layer_3
  10
38.781322
  20
21.543907
  0
VERTEX
  5
35e
  8
Layer_3
  10
38.759205
  20
21.503263
  0
VERTEX
  5
35f
  8
Layer_3
  10
38.743149
  20
21.460115
  0
VERTEX
  5
360
  8
Layer_3
  10
38.733349
  20
21.415133
  0
VERTEX
  5
361
  8
Layer_3
  10
38.73
  20
21.36898
  0
VERTEX
  5
362
  8
Layer_3
  10
38.237984
  20
19.920446
  0
VERTEX
  5
363
  8
Layer_3
  10
38.228077
  20
19.899794
  0
VERTEX
  5
364
  8
Layer_3
  10
38.213772
  20
19.882305
  0
VERTEX
  5
365
  8
Layer_3
  10
38.195766
  20
19.868654
  0
VERTEX
  5
366
  8
Layer_3
  10
38.174755
  20
19.859516
  0
VERTEX
  5
367
  8
Layer_3
  10
38.152184
  20
19.855627
  0
VERTEX
  5
368
  8
Layer_3
  10
38.129642
  20
19.857157
  0
VERTEX
  5
369
  8
Layer_3
  10
38.108086
  20
19.863924
  0
VERTEX
  5
36a
  8
Layer_3
  10
38.088467
  20
19.87575
  0
VERTEX
  5
36b
  8
Layer_3
  10
35.736855
  20
20.287224
  0
VERTEX
  5
36c
  8
Layer_3
  10
35.196823
  20
20.318911
  0
VERTEX
  5
36d
  8
Layer_3
  10
35.097542
  20
20.358078
  0
VERTEX
  5
36e
  8
Layer_3
  10
34.996758
  20
20.392723
  0
VERTEX
  5
36f
  8
Layer_3
  10
34.894634
  20
20.422813
  0
VERTEX
  5
370
  8
Layer_3
  10
34.791325
  20
20.448311
  0
VERTEX
  5
371
  8
Layer_3
  10
34.686977
  20
20.469183
  0
VERTEX
  5
372
  8
Layer_3
  10
34.581753
  20
20.485395
  0
VERTEX
  5
373
  8
Layer_3
  10
34.475811
  20
20.496914
  0
VERTEX
  5
374
  8
Layer_3
  10
34.369297
  20
20.503702
  0
VERTEX
  5
375
  8
Layer_3
  10
34.315861
  20
20.506744
  0
VERTEX
  5
376
  8
Layer_3
  10
34.263157
  20
20.500267
  0
VERTEX
  5
377
  8
Layer_3
  10
34.212437
  20
20.484543
  0
VERTEX
  5
378
  8
Layer_3
  10
34.164951
  20
20.459837
  0
VERTEX
  5
379
  8
Layer_3
  10
33.34985
  20
19.916435
  0
VERTEX
  5
37a
  8
Layer_3
  10
29.54434
  20
19.714802
  0
SEQEND
  0
POLYLINE
  5
37c
  8
Layer_0
  62
4
  66
1
  10
0
  20
0
  30
0
  0
VERTEX
  5
37c
  8
Layer_0
  10
38.80558
  20
21.582602
  0
VERTEX
  5
37d
  8
Layer_0
  10
38.786839
  20
21.026979
  0
VERTEX
  5
37e
  8
Layer_0
  10
39.183361
  20
21.020954
  0
VERTEX
  5
37f
  8
Layer_0
  10
39.173717
  20
19.708549
  0
VERTEX
  5
380
  8
Layer_0
  10
39.05389
  20
19.7206
  0
VERTEX
  5
381
  8
Layer_0
  10
38.935791
  20
19.738701
  0
VERTEX
  5
382
  8
Layer_0
  10
38.819546
  20
19.76276
  0
VERTEX
  5
383
  8
Layer_0
  10
38.705269
  20
19.792694
  0
VERTEX
  5
384
  8
Layer_0
  10
38.593075
  20
19.828419
  0
VERTEX
  5
385
  8
Layer_0
  10
38.483078
  20
19.869844
  0
VERTEX
  5
386
  8
Layer_0
  10
38.375393
  20
19.916885
  0
VERTEX
  5
387
  8
Layer_0
  10
38.270138
  20
19.969456
  0
SEQEND
  0
POLYLINE
  5
389
  8
Layer_0
  62
4
  66
1
  10
0
  20
0
  30
0
  0
VERTEX
  5
389
  8
Layer_0
  10
38.512707
  20
19.861929
  0
VERTEX
  5
38a
  8
Layer_0
  10
38.831654
  20
21.020115
  0
SEQEND
  0
POLYLINE
  5
38c
  8
Layer_0
  62
4
  66
1
  10
0
  20
0
  30
0
  0
VERTEX
  5
38c
  8
Layer_0
  10
39.590603
  20
21.044928
  0
VERTEX
  5
38d
  8
Layer_0
  10
40.08408
  20
21.03743
  0
SEQEND
  0
POLYLINE
  5
38f
  8
Layer_0
  62
4
  66
1
  10
0
  20
0
  30
0
  0
VERTEX
  5
38f
  8
Layer_0
  10
29.137997
  20
21.553658
  0
VERTEX
  5
390
  8
Layer_0
  10
29.137997
  20
20.053596
  0
SEQEND
  0
POLYLINE
  5
392
  8
Layer_0
  62
4
  66
1
  10
0
  20
0
  30
0
  0
VERTEX
  5
392
  8
Layer_0
  10
29.328081
  20
20.053596
  0
VERTEX
  5
393
  8
Layer_0
  10
29.328081
  20
21.553658
  0
SEQEND
  0
POLYLINE
  5
395
  8
Layer_3
  62
0
  66
1
  10
0
  20
0
  30
0
  0
VERTEX
  5
395
  8
Layer_3
  10
32.436481
  20
21.555099
  0
VERTEX
  5
396
  8
Layer_3
  10
32.435722
  20
20.428469
  0
VERTEX
  5
397
  8
Layer_3
  10
32.433784
  20
20.390127
  0
VERTEX
  5
398
  8
Layer_3
  10
32.428101
  20
20.352894
  0
VERTEX
  5
399
  8
Layer_3
  10
32.418861
  20
20.316956
  0
VERTEX
  5
39a
  8
Layer_3
  10
32.40625
  20
20.282501
  0
VERTEX
  5
39b
  8
Layer_3
  10
32.390461
  20
20.249722
  0
VERTEX
  5
39c
  8
Layer_3
  10
32.371677
  20
20.218803
  0
VERTEX
  5
39d
  8
Layer_3
  10
32.35009
  20
20.189936
  0
VERTEX
  5
39e
  8
Layer_3
  10
32.325886
  20
20.163305
  0
VERTEX
  5
39f
  8
Layer_3
  10
32.299255
  20
20.139103
  0
VERTEX
  5
3a0
  8
Layer_3
  10
32.270386
  20
20.117514
  0
VERTEX
  5
3a1
  8
Layer_3
  10
32.239468
  20
20.09873
  0
VERTEX
  5
3a2
  8
Layer_3
  10
32.206684
  20
20.082941
  0
VERTEX
  5
3a3
  8
Layer_3
  10
32.172234
  20
20.07033
  0
VERTEX
  5
3a4
  8
Layer_3
  10
32.136295
  20
20.06109
  0
VERTEX
  5
3a5
  8
Layer_3
  10
32.099064
  20
20.055408
  0
VERTEX
  5
3a6
  8
Layer_3
  10
32.060719
  20
20.053471
  0
VERTEX
  5
3a7
  8
Layer_3
  10
26.40621
  20
20.053497
  0
VERTEX
  5
3a8
  8
Layer_3
  10
26.36787
  20
20.055433
  0
VERTEX
  5
3a9
  8
Layer_3
  10
26.330637
  20
20.061117
  0
VERTEX
  5
3aa
  8
Layer_3
  10
26.294701
  20
20.070356
  0
VERTEX
  5
3ab
  8
Layer_3
  10
26.260246
  20
20.082968
  0
VERTEX
  5
3ac
  8
Layer_3
  10
26.227465
  20
20.098757
  0
VERTEX
  5
3ad
  8
Layer_3
  10
26.196548
  20
20.11754
  0
VERTEX
  5
3ae
  8
Layer_3
  10
26.167681
  20
20.13913
  0
VERTEX
  5
3af
  8
Layer_3
  10
26.141048
  20
20.163332
  0
VERTEX
  5
3b0
  8
Layer_3
  10
26.116842
  20
20.18996
  0
VERTEX
  5
3b1
  8
Layer_3
  10
26.095255
  20
20.21883
  0
VERTEX
  5
3b2
  8
Layer_3
  10
26.076473
  20
20.24975
  0
VERTEX
  5
3b3
  8
Layer_3
  10
26.06068
  20
20.28253
  0
VERTEX
  5
3b4
  8
Layer_3
  10
26.048071
  20
20.316984
  0
VERTEX
  5
3b5
  8
Layer_3
  10
26.038832
  20
20.352921
  0
VERTEX
  5
3b6
  8
Layer_3
  10
26.033148
  20
20.390154
  0
VERTEX
  5
3b7
  8
Layer_3
  10
26.031214
  20
20.428495
  0
VERTEX
  5
3b8
  8
Layer_3
  10
26.029747
  20
21.555101
  0
SEQEND
  0
POLYLINE
  5
3ba
  8
Layer_3
  62
0
  66
1
  10
0
  20
0
  30
0
  0
VERTEX
  5
3ba
  8
Layer_3
  10
32.08268
  20
21.543097
  0
VERTEX
  5
3bb
  8
Layer_3
  10
32.436481
  20
21.555099
  0
SEQEND
  0
POLYLINE
  5
3bd
  8
Layer_3
  62
0
  66
1
  10
0
  20
0
  30
0
  0
VERTEX
  5
3bd
  8
Layer_3
  10
32.08268
  20
21.543097
  0
VERTEX
  5
3be
  8
Layer_3
  10
32.081379
  20
21.05405
  0
VERTEX
  5
3bf
  8
Layer_3
  10
31.78138
  20
21.05405
  0
VERTEX
  5
3c0
  8
Layer_3
  10
31.782616
  20
21.548302
  0
VERTEX
  5
3c1
  8
Layer_3
  10
26.640783
  20
21.546238
  0
VERTEX
  5
3c2
  8
Layer_3
  10
26.640852
  20
21.05405
  0
VERTEX
  5
3c3
  8
Layer_3
  10
26.340851
  20
21.05405
  0
VERTEX
  5
3c4
  8
Layer_3
  10
26.338339
  20
21.54088
  0
SEQEND
  0
POLYLINE
  5
3c6
  8
Layer_3
  62
0
  66
1
  10
0
  20
0
  30
0
  0
VERTEX
  5
3c6
  8
Layer_3
  10
26.029747
  20
21.555101
  0
VERTEX
  5
3c7
  8
Layer_3
  10
26.338339
  20
21.54088
  0
SEQEND
  0
POLYLINE
  5
3c9
  8
Layer_2
  62
206
  70
1
  66
1
  10
0
  20
0
  30
0
  0
VERTEX
  5
3c9
  8
Layer_2
  10
32.379974
  20
18.744194
  0
VERTEX
  5
3ca
  8
Layer_2
  10
32.209972
  20
18.744194
  0
VERTEX
  5
3cb
  8
Layer_2
  10
32.209972
  20
18.914196
  0
VERTEX
  5
3cc
  8
Layer_2
  10
32.379974
  20
18.914196
  0
VERTEX
  5
3cd
  8
Layer_2
  10
32.379974
  20
18.744194
  0
SEQEND
  0
POLYLINE
  5
3cf
  8
Layer_0
  62
4
  66
1
  10
0
  20
0
  30
0
  0
VERTEX
  5
3cf
  8
Layer_0
  10
30.399031
  20
23.556053
  0
VERTEX
  5
3d0
  8
Layer_0
  10
30.397087
  20
21.72476
  0
SEQEND
  0
POLYLINE
  5
3d2
  8
Layer_0
  62
4
  66
1
  10
0
  20
0
  30
0
  0
VERTEX
  5
3d2
  8
Layer_0
  10
30.022543
  20
22.22434
  0
VERTEX
  5
3d3
  8
Layer_0
  10
30.064919
  20
22.197594
  0
VERTEX
  5
3d4
  8
Layer_0
  10
30.109804
  20
22.176725
  0
VERTEX
  5
3d5
  8
Layer_0
  10
30.15661
  20
22.161812
  0
VERTEX
  5
3d6
  8
Layer_0
  10
30.204744
  20
22.152924
  0
VERTEX
  5
3d7
  8
Layer_0
  10
30.253614
  20
22.150129
  0
VERTEX
  5
3d8
  8
Layer_0
  10
30.302624
  20
22.153503
  0
VERTEX
  5
3d9
  8
Layer_0
  10
30.351183
  20
22.163115
  0
VERTEX
  5
3da
  8
Layer_0
  10
30.398697
  20
22.179037
  0
SEQEND
  0
POLYLINE
  5
3dc
  8
Layer_0
  62
4
  66
1
  10
0
  20
0
  30
0
  0
VERTEX
  5
3dc
  8
Layer_0
  10
30.400406
  20
22.565111
  0
VERTEX
  5
3dd
  8
Layer_0
  10
31.166613
  20
22.559778
  0
SEQEND
  0
POLYLINE
  5
3df
  8
Layer_0
  62
4
  66
1
  10
0
  20
0
  30
0
  0
VERTEX
  5
3df
  8
Layer_0
  10
30.39888
  20
22.427933
  0
VERTEX
  5
3e0
  8
Layer_0
  10
31.161856
  20
22.419445
  0
SEQEND
  0
POLYLINE
  5
3e2
  8
Layer_0
  62
4
  66
1
  10
0
  20
0
  30
0
  0
VERTEX
  5
3e2
  8
Layer_0
  10
31.174913
  20
23.593428
  0
VERTEX
  5
3e3
  8
Layer_0
  10
31.166964
  20
21.730228
  0
SEQEND
  0
POLYLINE
  5
3e5
  8
Layer_0
  62
4
  66
1
  10
0
  20
0
  30
0
  0
VERTEX
  5
3e5
  8
Layer_0
  10
31.459255
  20
23.609407
  0
VERTEX
  5
3e6
  8
Layer_0
  10
31.444664
  20
21.723949
  0
SEQEND
  0
POLYLINE
  5
3e8
  8
Layer_0
  62
4
  66
1
  10
0
  20
0
  30
0
  0
VERTEX
  5
3e8
  8
Layer_0
  10
32.779823
  20
23.671015
  0
VERTEX
  5
3e9
  8
Layer_0
  10
32.766487
  20
23.133976
  0
VERTEX
  5
3ea
  8
Layer_0
  10
32.786537
  20
23.088486
  0
SEQEND
  0
POLYLINE
  5
3ec
  8
Layer_0
  62
4
  66
1
  10
0
  20
0
  30
0
  0
VERTEX
  5
3ec
  8
Layer_0
  10
34.121777
  20
23.739256
  0
VERTEX
  5
3ed
  8
Layer_0
  10
34.116966
  20
23.306799
  0
SEQEND
  0
POLYLINE
  5
3ef
  8
Layer_0
  62
4
  66
1
  10
0
  20
0
  30
0
  0
VERTEX
  5
3ef
  8
Layer_0
  10
31.455986
  20
22.545242
  0
VERTEX
  5
3f0
  8
Layer_0
  10
32.221024
  20
22.53973
  0
SEQEND
  0
POLYLINE
  5
3f2
  8
Layer_0
  62
4
  66
1
  10
0
  20
0
  30
0
  0
VERTEX
  5
3f2
  8
Layer_0
  10
31.450552
  20
22.403915
  0
VERTEX
  5
3f3
  8
Layer_0
  10
32.222412
  20
22.389517
  0
SEQEND
  0
POLYLINE
  5
3f5
  8
Layer_0
  62
4
  66
1
  10
0
  20
0
  30
0
  0
VERTEX
  5
3f5
  8
Layer_0
  10
31.171663
  20
23.421747
  0
VERTEX
  5
3f6
  8
Layer_0
  10
31.46294
  20
23.418507
  0
SEQEND
  0
POLYLINE
  5
3f8
  8
Layer_0
  62
4
  66
1
  10
0
  20
0
  30
0
  0
VERTEX
  5
3f8
  8
Layer_0
  10
31.174137
  20
23.147245
  0
VERTEX
  5
3f9
  8
Layer_0
  10
31.456022
  20
23.144108
  0
SEQEND
  0
POLYLINE
  5
3fb
  8
Layer_0
  62
4
  66
1
  10
0
  20
0
  30
0
  0
VERTEX
  5
3fb
  8
Layer_0
  10
31.175104
  20
22.972559
  0
VERTEX
  5
3fc
  8
Layer_0
  10
31.44729
  20
22.969532
  0
SEQEND
  0
POLYLINE
  5
3fe
  8
Layer_0
  62
4
  66
1
  10
0
  20
0
  30
0
  0
VERTEX
  5
3fe
  8
Layer_0
  10
31.174316
  20
22.581631
  0
VERTEX
  5
3ff
  8
Layer_0
  10
31.447111
  20
22.578596
  0
SEQEND
  0
POLYLINE
  5
401
  8
Layer_0
  62
4
  66
1
  10
0
  20
0
  30
0
  0
VERTEX
  5
401
  8
Layer_0
  10
31.167696
  20
22.323874
  0
VERTEX
  5
402
  8
Layer_0
  10
31.450172
  20
22.32073
  0
SEQEND
  0
POLYLINE
  5
404
  8
Layer_0
  62
4
  66
1
  10
0
  20
0
  30
0
  0
VERTEX
  5
404
  8
Layer_0
  10
31.172527
  20
22.023142
  0
VERTEX
  5
405
  8
Layer_0
  10
31.44375
  20
22.020124
  0
SEQEND
  0
POLYLINE
  5
407
  8
Layer_0
  62
4
  66
1
  10
0
  20
0
  30
0
  0
VERTEX
  5
407
  8
Layer_0
  10
31.17005
  20
21.86342
  0
VERTEX
  5
408
  8
Layer_0
  10
31.439232
  20
21.860428
  0
SEQEND
  0
POLYLINE
  5
40a
  8
Layer_2
  62
206
  70
1
  66
1
  10
0
  20
0
  30
0
  0
VERTEX
  5
40a
  8
Layer_2
  10
31.923639
  20
22.859068
  0
VERTEX
  5
40b
  8
Layer_2
  10
30.423731
  20
22.875748
  0
VERTEX
  5
40c
  8
Layer_2
  10
30.426067
  20
23.085735
  0
VERTEX
  5
40d
  8
Layer_2
  10
31.925974
  20
23.069056
  0
VERTEX
  5
40e
  8
Layer_2
  10
31.923639
  20
22.859068
  0
SEQEND
  0
POLYLINE
  5
410
  8
Layer_0
  62
4
  66
1
  10
0
  20
0
  30
0
  0
VERTEX
  5
410
  8
Layer_0
  10
32.76865
  20
23.321774
  0
VERTEX
  5
411
  8
Layer_0
  10
34.383263
  20
23.312138
  0
SEQEND
  0
POLYLINE
  5
413
  8
Layer_3
  62
0
  66
1
  10
0
  20
0
  30
0
  0
VERTEX
  5
413
  8
Layer_3
  10
34.377659
  20
23.324732
  0
VERTEX
  5
414
  8
Layer_3
  10
34.360283
  20
23.353348
  0
VERTEX
  5
415
  8
Layer_3
  10
34.344444
  20
23.378853
  0
VERTEX
  5
416
  8
Layer_3
  10
34.330059
  20
23.401466
  0
VERTEX
  5
417
  8
Layer_3
  10
34.317055
  20
23.421406
  0
VERTEX
  5
418
  8
Layer_3
  10
34.294868
  20
23.454124
  0
VERTEX
  5
419
  8
Layer_3
  10
34.277256
  20
23.478764
  0
VERTEX
  5
41a
  8
Layer_3
  10
34.263611
  20
23.49707
  0
VERTEX
  5
41b
  8
Layer_3
  10
34.2533
  20
23.510788
  0
VERTEX
  5
41c
  8
Layer_3
  10
34.245705
  20
23.521666
  0
VERTEX
  5
41d
  8
Layer_3
  10
34.240204
  20
23.531452
  0
VERTEX
  5
41e
  8
Layer_3
  10
34.236176
  20
23.541889
  0
VERTEX
  5
41f
  8
Layer_3
  10
34.233002
  20
23.554729
  0
VERTEX
  5
420
  8
Layer_3
  10
34.230061
  20
23.571714
  0
VERTEX
  5
421
  8
Layer_3
  10
34.226723
  20
23.594597
  0
VERTEX
  5
422
  8
Layer_3
  10
34.22237
  20
23.625118
  0
VERTEX
  5
423
  8
Layer_3
  10
34.216385
  20
23.665028
  0
VERTEX
  5
424
  8
Layer_3
  10
34.212585
  20
23.689047
  0
VERTEX
  5
425
  8
Layer_3
  10
34.208145
  20
23.71607
  0
VERTEX
  5
426
  8
Layer_3
  10
34.202984
  20
23.746317
  0
VERTEX
  5
427
  8
Layer_3
  10
34.197021
  20
23.779999
  0
SEQEND
  0
POLYLINE
  5
429
  8
Layer_0
  62
4
  66
1
  10
0
  20
0
  30
0
  0
VERTEX
  5
429
  8
Layer_0
  10
29.172211
  20
23.569893
  0
VERTEX
  5
42a
  8
Layer_0
  10
29.133423
  20
21.739012
  0
SEQEND
  0
POLYLINE
  5
42c
  8
Layer_0
  62
4
  66
1
  10
0
  20
0
  30
0
  0
VERTEX
  5
42c
  8
Layer_0
  10
29.518988
  20
22.230139
  0
VERTEX
  5
42d
  8
Layer_0
  10
29.476028
  20
22.20434
  0
VERTEX
  5
42e
  8
Layer_0
  10
29.430687
  20
22.184477
  0
VERTEX
  5
42f
  8
Layer_0
  10
29.38356
  20
22.170607
  0
VERTEX
  5
430
  8
Layer_0
  10
29.335241
  20
22.16279
  0
VERTEX
  5
431
  8
Layer_0
  10
29.286322
  20
22.161085
  0
VERTEX
  5
432
  8
Layer_0
  10
29.237398
  20
22.165546
  0
VERTEX
  5
433
  8
Layer_0
  10
29.189064
  20
22.176237
  0
VERTEX
  5
434
  8
Layer_0
  10
29.141916
  20
22.193213
  0
SEQEND
  0
POLYLINE
  5
436
  8
Layer_0
  62
4
  66
1
  10
0
  20
0
  30
0
  0
VERTEX
  5
436
  8
Layer_0
  10
29.148796
  20
22.579226
  0
VERTEX
  5
437
  8
Layer_0
  10
28.38266
  20
22.590939
  0
SEQEND
  0
POLYLINE
  5
439
  8
Layer_0
  62
4
  66
1
  10
0
  20
0
  30
0
  0
VERTEX
  5
439
  8
Layer_0
  10
29.14727
  20
22.442051
  0
VERTEX
  5
43a
  8
Layer_0
  10
28.384295
  20
22.450535
  0
SEQEND
  0
POLYLINE
  5
43c
  8
Layer_0
  62
4
  66
1
  10
0
  20
0
  30
0
  0
VERTEX
  5
43c
  8
Layer_0
  10
28.397352
  20
23.624517
  0
VERTEX
  5
43d
  8
Layer_0
  10
28.363855
  20
21.761602
  0
SEQEND
  0
POLYLINE
  5
43f
  8
Layer_0
  62
4
  66
1
  10
0
  20
0
  30
0
  0
VERTEX
  5
43f
  8
Layer_0
  10
28.113432
  20
23.646818
  0
VERTEX
  5
440
  8
Layer_0
  10
28.086086
  20
21.761501
  0
SEQEND
  0
POLYLINE
  5
442
  8
Layer_0
  62
4
  66
1
  10
0
  20
0
  30
0
  0
VERTEX
  5
442
  8
Layer_0
  10
26.794512
  20
23.737789
  0
VERTEX
  5
443
  8
Layer_0
  10
26.7959
  20
23.200586
  0
VERTEX
  5
444
  8
Layer_0
  10
26.172832
  20
22.133139
  0
SEQEND
  0
POLYLINE
  5
446
  8
Layer_0
  62
4
  66
1
  10
0
  20
0
  30
0
  0
VERTEX
  5
446
  8
Layer_0
  10
25.454458
  20
23.835848
  0
VERTEX
  5
447
  8
Layer_0
  10
25.449646
  20
23.403393
  0
SEQEND
  0
POLYLINE
  5
449
  8
Layer_0
  62
4
  66
1
  10
0
  20
0
  30
0
  0
VERTEX
  5
449
  8
Layer_0
  10
28.092957
  20
22.582846
  0
VERTEX
  5
44a
  8
Layer_0
  10
26.453466
  20
22.609396
  0
SEQEND
  0
POLYLINE
  5
44c
  8
Layer_0
  62
4
  66
1
  10
0
  20
0
  30
0
  0
VERTEX
  5
44c
  8
Layer_0
  10
28.095602
  20
22.441408
  0
VERTEX
  5
44d
  8
Layer_0
  10
26.368225
  20
22.460621
  0
SEQEND
  0
POLYLINE
  5
44f
  8
Layer_0
  62
4
  66
1
  10
0
  20
0
  30
0
  0
VERTEX
  5
44f
  8
Layer_0
  10
28.396784
  20
23.452806
  0
VERTEX
  5
450
  8
Layer_0
  10
28.105507
  20
23.456047
  0
SEQEND
  0
POLYLINE
  5
452
  8
Layer_0
  62
4
  66
1
  10
0
  20
0
  30
0
  0
VERTEX
  5
452
  8
Layer_0
  10
28.388479
  20
23.178408
  0
VERTEX
  5
453
  8
Layer_0
  10
28.106594
  20
23.181545
  0
SEQEND
  0
POLYLINE
  5
455
  8
Layer_0
  62
4
  66
1
  10
0
  20
0
  30
0
  0
VERTEX
  5
455
  8
Layer_0
  10
28.383587
  20
23.003805
  0
VERTEX
  5
456
  8
Layer_0
  10
28.111403
  20
23.00683
  0
SEQEND
  0
POLYLINE
  5
458
  8
Layer_0
  62
4
  66
1
  10
0
  20
0
  30
0
  0
VERTEX
  5
458
  8
Layer_0
  10
28.375521
  20
22.612986
  0
VERTEX
  5
459
  8
Layer_0
  10
28.102728
  20
22.61602
  0
SEQEND
  0
POLYLINE
  5
45b
  8
Layer_0
  62
4
  66
1
  10
0
  20
0
  30
0
  0
VERTEX
  5
45b
  8
Layer_0
  10
28.376406
  20
22.355125
  0
VERTEX
  5
45c
  8
Layer_0
  10
28.093929
  20
22.358269
  0
SEQEND
  0
POLYLINE
  5
45e
  8
Layer_0
  62
4
  66
1
  10
0
  20
0
  30
0
  0
VERTEX
  5
45e
  8
Layer_0
  10
28.364941
  20
22.054544
  0
VERTEX
  5
45f
  8
Layer_0
  10
28.093716
  20
22.057562
  0
SEQEND
  0
POLYLINE
  5
461
  8
Layer_0
  62
4
  66
1
  10
0
  20
0
  30
0
  0
VERTEX
  5
461
  8
Layer_0
  10
28.363867
  20
21.894819
  0
VERTEX
  5
462
  8
Layer_0
  10
28.094685
  20
21.897814
  0
SEQEND
  0
POLYLINE
  5
464
  8
Layer_2
  62
206
  70
1
  66
1
  10
0
  20
0
  30
0
  0
VERTEX
  5
464
  8
Layer_2
  10
27.632576
  20
22.907175
  0
VERTEX
  5
465
  8
Layer_2
  10
29.132484
  20
22.890493
  0
VERTEX
  5
466
  8
Layer_2
  10
29.134819
  20
23.100481
  0
VERTEX
  5
467
  8
Layer_2
  10
27.634912
  20
23.117163
  0
VERTEX
  5
468
  8
Layer_2
  10
27.632576
  20
22.907175
  0
SEQEND
  0
POLYLINE
  5
46a
  8
Layer_0
  62
4
  66
1
  10
0
  20
0
  30
0
  0
VERTEX
  5
46a
  8
Layer_0
  10
26.79801
  20
23.388384
  0
VERTEX
  5
46b
  8
Layer_0
  10
25.183584
  20
23.414658
  0
SEQEND
  0
POLYLINE
  5
46d
  8
Layer_3
  62
0
  66
1
  10
0
  20
0
  30
0
  0
VERTEX
  5
46d
  8
Layer_3
  10
25.189754
  20
23.427097
  0
VERTEX
  5
46e
  8
Layer_3
  10
25.20776
  20
23.45532
  0
VERTEX
  5
46f
  8
Layer_3
  10
25.224165
  20
23.480471
  0
VERTEX
  5
470
  8
Layer_3
  10
25.23905
  20
23.502754
  0
VERTEX
  5
471
  8
Layer_3
  10
25.252497
  20
23.522396
  0
VERTEX
  5
472
  8
Layer_3
  10
25.275406
  20
23.554619
  0
VERTEX
  5
473
  8
Layer_3
  10
25.293558
  20
23.578859
  0
VERTEX
  5
474
  8
Layer_3
  10
25.307613
  20
23.596857
  0
VERTEX
  5
475
  8
Layer_3
  10
25.318224
  20
23.610342
  0
VERTEX
  5
476
  8
Layer_3
  10
25.326057
  20
23.62105
  0
VERTEX
  5
477
  8
Layer_3
  10
25.331772
  20
23.630711
  0
VERTEX
  5
478
  8
Layer_3
  10
25.336031
  20
23.641058
  0
VERTEX
  5
479
  8
Layer_3
  10
25.339491
  20
23.653822
  0
VERTEX
  5
47a
  8
Layer_3
  10
25.342812
  20
23.670736
  0
VERTEX
  5
47b
  8
Layer_3
  10
25.346657
  20
23.693541
  0
VERTEX
  5
47c
  8
Layer_3
  10
25.351683
  20
23.723957
  0
VERTEX
  5
47d
  8
Layer_3
  10
25.358555
  20
23.763723
  0
VERTEX
  5
47e
  8
Layer_3
  10
25.36289
  20
23.787655
  0
VERTEX
  5
47f
  8
Layer_3
  10
25.367931
  20
23.814573
  0
VERTEX
  5
480
  8
Layer_3
  10
25.373762
  20
23.844694
  0
VERTEX
  5
481
  8
Layer_3
  10
25.380468
  20
23.878237
  0
SEQEND
  0
POLYLINE
  5
483
  8
Layer_3
  62
0
  66
1
  10
0
  20
0
  30
0
  0
VERTEX
  5
483
  8
Layer_3
  10
29.513615
  20
21.906355
  0
VERTEX
  5
484
  8
Layer_3
  10
29.567324
  20
21.913364
  0
VERTEX
  5
485
  8
Layer_3
  10
29.624441
  20
21.918344
  0
VERTEX
  5
486
  8
Layer_3
  10
29.684464
  20
21.921156
  0
VERTEX
  5
487
  8
Layer_3
  10
29.746885
  20
21.921656
  0
VERTEX
  5
488
  8
Layer_3
  10
29.822216
  20
21.919073
  0
VERTEX
  5
489
  8
Layer_3
  10
29.893789
  20
21.913219
  0
VERTEX
  5
48a
  8
Layer_3
  10
29.960716
  20
21.904369
  0
VERTEX
  5
48b
  8
Layer_3
  10
30.022099
  20
21.892799
  0
SEQEND
  0
POLYLINE
  5
48d
  8
Layer_3
  62
0
  66
1
  10
0
  20
0
  30
0
  0
VERTEX
  5
48d
  8
Layer_3
  10
30.031868
  20
23.339128
  0
VERTEX
  5
48e
  8
Layer_3
  10
29.975983
  20
23.331347
  0
VERTEX
  5
48f
  8
Layer_3
  10
29.916214
  20
23.325794
  0
VERTEX
  5
490
  8
Layer_3
  10
29.853153
  20
23.322636
  0
VERTEX
  5
491
  8
Layer_3
  10
29.787394
  20
23.322042
  0
VERTEX
  5
492
  8
Layer_3
  10
29.719416
  20
23.324217
  0
VERTEX
  5
493
  8
Layer_3
  10
29.654411
  20
23.329065
  0
VERTEX
  5
494
  8
Layer_3
  10
29.593033
  20
23.336386
  0
VERTEX
  5
495
  8
Layer_3
  10
29.535931
  20
23.34598
  0
SEQEND
  0
POLYLINE
  5
497
  8
Layer_3
  62
0
  66
1
  10
0
  20
0
  30
0
  0
VERTEX
  5
497
  8
Layer_3
  10
29.535347
  20
23.351482
  0
VERTEX
  5
498
  8
Layer_3
  10
29.509609
  20
23.402514
  0
VERTEX
  5
499
  8
Layer_3
  10
29.476669
  20
23.447866
  0
VERTEX
  5
49a
  8
Layer_3
  10
29.437431
  20
23.486992
  0
VERTEX
  5
49b
  8
Layer_3
  10
29.392801
  20
23.519335
  0
VERTEX
  5
49c
  8
Layer_3
  10
29.343685
  20
23.544344
  0
VERTEX
  5
49d
  8
Layer_3
  10
29.290985
  20
23.561459
  0
VERTEX
  5
49e
  8
Layer_3
  10
29.235609
  20
23.570133
  0
VERTEX
  5
49f
  8
Layer_3
  10
29.178457
  20
23.569815
  0
VERTEX
  5
4a0
  8
Layer_3
  10
25.379564
  20
23.871502
  0
SEQEND
  0
POLYLINE
  5
4a2
  8
Layer_3
  62
0
  66
1
  10
0
  20
0
  30
0
  0
VERTEX
  5
4a2
  8
Layer_3
  10
30.03146
  20
23.345781
  0
VERTEX
  5
4a3
  8
Layer_3
  10
30.058325
  20
23.396227
  0
VERTEX
  5
4a4
  8
Layer_3
  10
30.092264
  20
23.440838
  0
VERTEX
  5
4a5
  8
Layer_3
  10
30.132362
  20
23.47908
  0
VERTEX
  5
4a6
  8
Layer_3
  10
30.1777
  20
23.510426
  0
VERTEX
  5
4a7
  8
Layer_3
  10
30.227358
  20
23.534332
  0
VERTEX
  5
4a8
  8
Layer_3
  10
30.280428
  20
23.550274
  0
VERTEX
  5
4a9
  8
Layer_3
  10
30.335987
  20
23.557716
  0
VERTEX
  5
4aa
  8
Layer_3
  10
30.39312
  20
23.556122
  0
VERTEX
  5
4ab
  8
Layer_3
  10
34.197777
  20
23.773245
  0
SEQEND
  0
POLYLINE
  5
4ad
  8
Layer_3
  62
0
  70
1
  66
1
  10
0
  20
0
  30
0
  0
VERTEX
  5
4ad
  8
Layer_3
  10
30.34
  20
13.828318
  0
VERTEX
  5
4ae
  8
Layer_3
  10
30.341518
  20
13.84132
  0
VERTEX
  5
4af
  8
Layer_3
  10
30.345547
  20
13.853395
  0
VERTEX
  5
4b0
  8
Layer_3
  10
30.35181
  20
13.864289
  0
VERTEX
  5
4b1
  8
Layer_3
  10
30.360044
  20
13.873748
  0
VERTEX
  5
4b2
  8
Layer_3
  10
30.38134
  20
13.88732
  0
VERTEX
  5
4b3
  8
Layer_3
  10
30.407269
  20
13.892066
  0
VERTEX
  5
4b4
  8
Layer_3
  10
30.433067
  20
13.886659
  0
VERTEX
  5
4b5
  8
Layer_3
  10
30.454006
  20
13.872546
  0
VERTEX
  5
4b6
  8
Layer_3
  10
30.461996
  20
13.862884
  0
VERTEX
  5
4b7
  8
Layer_3
  10
30.467981
  20
13.851832
  0
VERTEX
  5
4b8
  8
Layer_3
  10
30.471701
  20
13.839657
  0
VERTEX
  5
4b9
  8
Layer_3
  10
30.472883
  20
13.826621
  0
VERTEX
  5
4ba
  8
Layer_3
  10
30.471365
  20
13.813619
  0
VERTEX
  5
4bb
  8
Layer_3
  10
30.467337
  20
13.801543
  0
VERTEX
  5
4bc
  8
Layer_3
  10
30.461073
  20
13.790648
  0
VERTEX
  5
4bd
  8
Layer_3
  10
30.452839
  20
13.781191
  0
VERTEX
  5
4be
  8
Layer_3
  10
30.431543
  20
13.767619
  0
VERTEX
  5
4bf
  8
Layer_3
  10
30.405615
  20
13.762873
  0
VERTEX
  5
4c0
  8
Layer_3
  10
30.379816
  20
13.768279
  0
VERTEX
  5
4c1
  8
Layer_3
  10
30.358877
  20
13.782393
  0
VERTEX
  5
4c2
  8
Layer_3
  10
30.350887
  20
13.792054
  0
VERTEX
  5
4c3
  8
Layer_3
  10
30.344902
  20
13.803105
  0
VERTEX
  5
4c4
  8
Layer_3
  10
30.341183
  20
13.815282
  0
VERTEX
  5
4c5
  8
Layer_3
  10
30.34
  20
13.828318
  0
SEQEND
  0
POLYLINE
  5
4c7
  8
Layer_0
  62
4
  66
1
  10
0
  20
0
  30
0
  0
VERTEX
  5
4c7
  8
Layer_0
  10
29.518988
  20
22.230141
  0
VERTEX
  5
4c8
  8
Layer_0
  10
30.022625
  20
22.224342
  0
SEQEND
  0
POLYLINE
  5
4ca
  8
Layer_0
  62
4
  66
1
  10
0
  20
0
  30
0
  0
VERTEX
  5
4ca
  8
Layer_0
  10
30.02939
  20
23.107908
  0
VERTEX
  5
4cb
  8
Layer_0
  10
30.072039
  20
23.133833
  0
VERTEX
  5
4cc
  8
Layer_0
  10
30.116554
  20
23.154034
  0
VERTEX
  5
4cd
  8
Layer_0
  10
30.162512
  20
23.168379
  0
VERTEX
  5
4ce
  8
Layer_0
  10
30.209496
  20
23.176737
  0
VERTEX
  5
4cf
  8
Layer_0
  10
30.257074
  20
23.178986
  0
VERTEX
  5
4d0
  8
Layer_0
  10
30.304831
  20
23.174999
  0
VERTEX
  5
4d1
  8
Layer_0
  10
30.352337
  20
23.164644
  0
VERTEX
  5
4d2
  8
Layer_0
  10
30.399172
  20
23.147797
  0
SEQEND
  0
POLYLINE
  5
4d4
  8
Layer_0
  62
4
  66
1
  10
0
  20
0
  30
0
  0
VERTEX
  5
4d4
  8
Layer_0
  10
29.525513
  20
23.113319
  0
VERTEX
  5
4d5
  8
Layer_0
  10
29.483721
  20
23.140245
  0
VERTEX
  5
4d6
  8
Layer_0
  10
29.440361
  20
23.161579
  0
VERTEX
  5
4d7
  8
Layer_0
  10
29.39572
  20
23.177155
  0
VERTEX
  5
4d8
  8
Layer_0
  10
29.350063
  20
23.186802
  0
VERTEX
  5
4d9
  8
Layer_0
  10
29.303673
  20
23.190353
  0
VERTEX
  5
4da
  8
Layer_0
  10
29.256828
  20
23.187641
  0
VERTEX
  5
4db
  8
Layer_0
  10
29.209799
  20
23.178497
  0
VERTEX
  5
4dc
  8
Layer_0
  10
29.162867
  20
23.162754
  0
SEQEND
  0
POLYLINE
  5
4de
  8
Layer_0
  62
4
  66
1
  10
0
  20
0
  30
0
  0
VERTEX
  5
4de
  8
Layer_0
  10
29.52553
  20
23.113478
  0
VERTEX
  5
4df
  8
Layer_0
  10
30.029169
  20
23.108074
  0
SEQEND
  0
POLYLINE
  5
4e1
  8
Layer_3
  62
0
  66
1
  10
0
  20
0
  30
0
  0
VERTEX
  5
4e1
  8
Layer_3
  10
34.377659
  20
23.32473
  0
VERTEX
  5
4e2
  8
Layer_3
  10
34.383568
  20
22.871546
  0
VERTEX
  5
4e3
  8
Layer_3
  10
33.991306
  20
22.875593
  0
VERTEX
  5
4e4
  8
Layer_3
  10
33.992332
  20
23.079704
  0
VERTEX
  5
4e5
  8
Layer_3
  10
32.224911
  20
23.088608
  0
VERTEX
  5
4e6
  8
Layer_3
  10
32.21867
  20
22.042131
  0
VERTEX
  5
4e7
  8
Layer_3
  10
32.092899
  20
22.039291
  0
VERTEX
  5
4e8
  8
Layer_3
  10
32.095135
  20
21.704006
  0
VERTEX
  5
4e9
  8
Layer_3
  10
30.357092
  20
21.724863
  0
VERTEX
  5
4ea
  8
Layer_3
  10
30.308996
  20
21.730764
  0
VERTEX
  5
4eb
  8
Layer_3
  10
30.262064
  20
21.741295
  0
VERTEX
  5
4ec
  8
Layer_3
  10
30.216597
  20
21.756298
  0
VERTEX
  5
4ed
  8
Layer_3
  10
30.172907
  20
21.77562
  0
VERTEX
  5
4ee
  8
Layer_3
  10
30.131308
  20
21.799103
  0
VERTEX
  5
4ef
  8
Layer_3
  10
30.092106
  20
21.826593
  0
VERTEX
  5
4f0
  8
Layer_3
  10
30.055613
  20
21.857935
  0
VERTEX
  5
4f1
  8
Layer_3
  10
30.022139
  20
21.892969
  0
SEQEND
  0
POLYLINE
  5
4f3
  8
Layer_3
  62
0
  66
1
  10
0
  20
0
  30
0
  0
VERTEX
  5
4f3
  8
Layer_3
  10
29.512243
  20
21.898832
  0
VERTEX
  5
4f4
  8
Layer_3
  10
29.478001
  20
21.86455
  0
VERTEX
  5
4f5
  8
Layer_3
  10
29.440823
  20
21.83403
  0
VERTEX
  5
4f6
  8
Layer_3
  10
29.40102
  20
21.807419
  0
VERTEX
  5
4f7
  8
Layer_3
  10
29.358908
  20
21.784864
  0
VERTEX
  5
4f8
  8
Layer_3
  10
29.314802
  20
21.766521
  0
VERTEX
  5
4f9
  8
Layer_3
  10
29.269011
  20
21.752533
  0
VERTEX
  5
4fa
  8
Layer_3
  10
29.221849
  20
21.743052
  0
VERTEX
  5
4fb
  8
Layer_3
  10
29.173637
  20
21.738224
  0
VERTEX
  5
4fc
  8
Layer_3
  10
27.435555
  20
21.756025
  0
VERTEX
  5
4fd
  8
Layer_3
  10
27.44525
  20
22.091175
  0
VERTEX
  5
4fe
  8
Layer_3
  10
25.159206
  20
22.164225
  0
VERTEX
  5
4ff
  8
Layer_3
  10
25.174658
  20
22.814619
  0
VERTEX
  5
500
  8
Layer_3
  10
25.572113
  20
22.806318
  0
VERTEX
  5
501
  8
Layer_3
  10
25.57609
  20
22.976242
  0
VERTEX
  5
502
  8
Layer_3
  10
25.178955
  20
22.983564
  0
VERTEX
  5
503
  8
Layer_3
  10
25.189642
  20
23.427111
  0
SEQEND
  0
POLYLINE
  5
505
  8
Layer_2
  62
206
  70
1
  66
1
  10
0
  20
0
  30
0
  0
VERTEX
  5
505
  8
Layer_2
  10
26.296268
  20
22.696127
  0
VERTEX
  5
506
  8
Layer_2
  10
26.46612
  20
22.688988
  0
VERTEX
  5
507
  8
Layer_2
  10
26.473259
  20
22.858839
  0
VERTEX
  5
508
  8
Layer_2
  10
26.303408
  20
22.865978
  0
VERTEX
  5
509
  8
Layer_2
  10
26.296268
  20
22.696127
  0
SEQEND
  0
ENDSEC
  0
EOF
