0
SECTION
2
HEADER
9
$INSUNITS
70
4
9
$ACADVER
1
AC1014
9
$HANDSEED
5
FFFF
0
ENDSEC
0
SECTION
2
TABLES
0
TABLE
2
VPORT
5
8
100
AcDbSymbolTable
0
ENDTAB
0
TABLE
2
LTYPE
5
5
100
AcDbSymbolTable
0
LTYPE
5
14
100
AcDbSymbolTableRecord
100
AcDbLinetypeTableRecord
2
BYBLOCK
70
0
0
LTYPE
5
15
100
AcDbSymbolTableRecord
100
AcDbLinetypeTableRecord
2
BYLAYER
70
0
0
ENDTAB
0
TABLE
2
LAYER
5
2
100
AcDbSymbolTable
70
2
0
LAYER
5
50
100
AcDbSymbolTableRecord
100
AcDbLayerTableRecord
2
0
70
0
6
CONTINUOUS
0
ENDTAB
0
TABLE
2
STYLE
5
3
100
AcDbSymbolTable
70
1
0
STYLE
5
11
100
AcDbSymbolTableRecord
100
AcDbTextStyleTableRecord
2
STANDARD
70
0
0
ENDTAB
0
TABLE
2
VIEW
5
6
100
AcDbSymbolTable
70
0
0
ENDTAB
0
TABLE
2
UCS
5
7
100
AcDbSymbolTable
70
0
0
ENDTAB
0
TABLE
2
APPID
5
9
100
AcDbSymbolTable
70
2
0
APPID
5
12
100
AcDbSymbolTableRecord
100
AcDbRegAppTableRecord
2
ACAD
70
0
0
ENDTAB
0
TABLE
2
DIMSTYLE
5
A
100
AcDbSymbolTable
70
1
0
ENDTAB
0
TABLE
2
BLOCK_RECORD
5
1
100
AcDbSymbolTable
70
1
0
BLOCK_RECORD
5
1F
100
AcDbSymbolTableRecord
100
AcDbBlockTableRecord
2
*MODEL_SPACE
0
BLOCK_RECORD
5
1B
100
AcDbSymbolTableRecord
100
AcDbBlockTableRecord
2
*PAPER_SPACE
0
ENDTAB
0
ENDSEC
0
SECTION
2
BLOCKS
0
BLOCK
5
20
100
AcDbEntity
100
AcDbBlockBegin
2
*MODEL_SPACE
0
ENDBLK
5
21
100
AcDbEntity
100
AcDbBlockEnd
0
BLOCK
5
1C
100
AcDbEntity
100
AcDbBlockBegin
2
*PAPER_SPACE
0
ENDBLK
5
1D
100
AcDbEntity
100
AcDbBlockEnd
0
ENDSEC
0
SECTION
2
ENTITIES
0
LINE
5
100
100
AcDbEntity
8
0
100
AcDbLine
10
67.854565723203848
20
18.858102890577292
30
-3.730349362740526e-13
11
93.500001393258643
21
29.000000432133675
31
-3.780309398848658e-13
0
LINE
5
101
100
AcDbEntity
8
0
100
AcDbLine
10
93.500001393258643
20
29.000000432133675
30
-3.780309398848658e-13
11
78.000001162290658
21
246.99709162430418
31
-6.2519434074204128e-14
0
SPLINE
5
102
100
AcDbEntity
8
0
100
AcDbSpline
70
1064
71
5
72
61
73
55
74
0
42
0.000000001
43
0.0000000001
44
0.0000000001
40
-1
40
-1
40
-1
40
-1
40
-1
40
-1
40
-0.98000000000000054
40
-0.96000000000000052
40
-0.9400000000000005
40
-0.92000000000000048
40
-0.90000000000000047
40
-0.88000000000000045
40
-0.86000000000000043
40
-0.84000000000000041
40
-0.8200000000000004
40
-0.80000000000000038
40
-0.78000000000000036
40
-0.76000000000000034
40
-0.74000000000000032
40
-0.72000000000000031
40
-0.70000000000000029
40
-0.68000000000000027
40
-0.66000000000000025
40
-0.64000000000000024
40
-0.62000000000000022
40
-0.6000000000000002
40
-0.58000000000000018
40
-0.56000000000000016
40
-0.54000000000000015
40
-0.52000000000000013
40
-0.50000000000000011
40
-0.48000000000000015
40
-0.46000000000000013
40
-0.44000000000000011
40
-0.4200000000000001
40
-0.40000000000000008
40
-0.38000000000000006
40
-0.36000000000000004
40
-0.34000000000000002
40
-0.32000000000000001
40
-0.29999999999999999
40
-0.27999999999999997
40
-0.25999999999999995
40
-0.23999999999999996
40
-0.21999999999999997
40
-0.19999999999999998
40
-0.17999999999999999
40
-0.16
40
-0.14000000000000001
40
-0.12000000000000001
40
-0.10000000000000001
40
-0.080000000000000002
40
-0.059999999999999998
40
-0.040000000000000001
40
-0.02
40
-0
40
-0
40
-0
40
-0
40
-0
40
-0
10
78.000001162290857
20
246.99709162430418
30
-8.8817841970012523e-14
10
77.974564440917931
20
247.21025929524632
30
-7.1054273576010019e-14
10
77.916079394306763
20
247.63956670281232
30
-8.8817841970012523e-14
10
77.805515206779461
20
248.29244276389531
30
-8.8817841970012523e-14
10
77.612408984277579
20
249.18079652293258
30
-7.1054273576010019e-14
10
77.292443702863807
20
250.31886843447498
30
-7.1054273576010019e-14
10
76.88717240150865
20
251.47827868557914
30
-8.8817841970012523e-14
10
76.382824967872835
20
252.64597378021978
30
-7.1054273576010019e-14
10
75.758267901317993
20
253.80122505603424
30
-7.1054273576010019e-14
10
74.993052174498729
20
254.92051003072984
30
-7.1054273576010019e-14
10
74.074186113924299
20
255.9814800513505
30
-7.1054273576010019e-14
10
73.003270303619274
20
256.967224462091
30
-5.3290705182007514e-14
10
71.803945819838901
20
257.87059157499243
30
-5.3290705182007514e-14
10
70.512104244719751
20
258.69204403280224
30
-5.3290705182007514e-14
10
69.165261307030192
20
259.43725384894566
30
-5.3290705182007514e-14
10
67.792686657219576
20
260.11485610655421
30
-5.3290705182007514e-14
10
66.404198025301042
20
260.73404662828801
30
-5.3290705182007514e-14
10
64.982449608141479
20
261.30255118643106
30
-3.5527136788005009e-14
10
63.495829064238336
20
261.82667145875422
30
-5.3290705182007514e-14
10
61.908942127916475
20
262.31109066873989
30
-5.3290705182007514e-14
10
60.194007227482871
20
262.75876921552674
30
-5.3290705182007514e-14
10
58.341887577990406
20
263.17079782311811
30
-3.5527136788005009e-14
10
56.373299340833398
20
263.54626652669992
30
-1.7763568394002505e-14
10
54.329334624681707
20
263.88296005602047
30
-3.5527136788005009e-14
10
52.261965678997626
20
264.17806174203542
30
-3.5527136788005009e-14
10
50.22479799282479
20
264.42883787864366
30
-1.7763568394002505e-14
10
48.263266612726596
20
264.63336541321388
30
-3.5527136788005009e-14
10
46.406142747519965
20
264.79116395431572
30
-3.5527136788005009e-14
10
44.65367666577464
20
264.90407690150766
30
-1.7763568394002505e-14
10
42.981717258144698
20
264.97597618052362
30
-3.5527136788005009e-14
10
41.353139087855908
20
265.01192684367669
30
-1.7763568394002505e-14
10
39.72716852904469
20
265.01751318868224
30
-1.7763568394002505e-14
10
38.068994777418936
20
264.99813243623413
30
-1.7763568394002505e-14
10
36.360628747766128
20
264.95822759070074
30
-1.7763568394002505e-14
10
34.606940839846914
20
264.90078504222009
30
-1.7763568394002505e-14
10
32.826824069344269
20
264.82765052882587
30
-1.7763568394002505e-14
10
31.047184005504533
20
264.73969710929157
30
-1.7763568394002505e-14
10
29.295579365543745
20
264.63704644557788
30
-1.7763568394002505e-14
10
27.594044597929752
20
264.51927216301613
30
-1.7763568394002505e-14
10
25.950867340480386
20
264.38559277004526
30
-1.7763568394002505e-14
10
24.361915671833572
20
264.23515940421532
30
-1.7763568394002505e-14
10
22.815638719763598
20
264.06737317318385
30
0
10
21.29701152273185
20
263.88221539298775
30
0
10
19.791564899331888
20
263.68052562385861
30
-1.7763568394002505e-14
10
18.290225531485476
20
263.46442605501625
30
-1.7763568394002505e-14
10
16.789910485539821
20
263.2371304708613
30
-1.7763568394002505e-14
10
15.291309807324751
20
263.002365593945
30
0
10
13.797485442376569
20
262.76389399433862
30
-1.7763568394002505e-14
10
12.312235710668347
20
262.52503275963016
30
0
10
10.838319498503921
20
262.28807866197207
30
-1.7763568394002505e-14
10
9.3772972475071015
20
262.05437510705832
30
-1.7763568394002505e-14
10
8.2194228729009922
20
261.87055250483047
30
-1.7763568394002505e-14
10
7.3572777813321011
20
261.7345489696786
30
0
10
6.7852956418046517
20
261.64470779184364
30
0
10
6.4999998547138205
20
261.59999415278435
30
0
0
LINE
5
103
100
AcDbEntity
8
0
100
AcDbLine
10
6.4999998547138205
20
261.59999415278435
30
-5.4396222076078656e-30
11
42.854565723203876
21
246.99709162430418
31
-3.6637359812630166e-14
0
LINE
5
104
100
AcDbEntity
8
0
100
AcDbLine
10
42.854565723203876
20
246.99709162430418
30
-3.6637359812630166e-14
11
42.854565723203848
21
-246.99709162430418
31
-7.0733400743613698e-13
0
LINE
5
105
100
AcDbEntity
8
0
100
AcDbLine
10
42.854565723203848
20
-246.99709162430418
30
-7.0733400743613698e-13
11
6.4999998547137938
21
-261.59999415278435
31
-6.9583228068381686e-13
0
SPLINE
5
106
100
AcDbEntity
8
0
100
AcDbSpline
70
1064
71
5
72
61
73
55
74
0
42
0.000000001
43
0.0000000001
44
0.0000000001
40
0
40
0
40
0
40
0
40
0
40
0
40
0.02
40
0.040000000000000001
40
0.059999999999999998
40
0.080000000000000002
40
0.10000000000000001
40
0.12000000000000001
40
0.14000000000000001
40
0.16
40
0.17999999999999999
40
0.19999999999999998
40
0.21999999999999997
40
0.23999999999999996
40
0.25999999999999995
40
0.27999999999999997
40
0.29999999999999999
40
0.32000000000000001
40
0.34000000000000002
40
0.36000000000000004
40
0.38000000000000006
40
0.40000000000000008
40
0.4200000000000001
40
0.44000000000000011
40
0.46000000000000013
40
0.48000000000000015
40
0.50000000000000011
40
0.52000000000000013
40
0.54000000000000015
40
0.56000000000000016
40
0.58000000000000018
40
0.6000000000000002
40
0.62000000000000022
40
0.64000000000000024
40
0.66000000000000025
40
0.68000000000000027
40
0.70000000000000029
40
0.72000000000000031
40
0.74000000000000032
40
0.76000000000000034
40
0.78000000000000036
40
0.80000000000000038
40
0.8200000000000004
40
0.84000000000000041
40
0.86000000000000043
40
0.88000000000000045
40
0.90000000000000047
40
0.92000000000000048
40
0.9400000000000005
40
0.96000000000000052
40
0.98000000000000054
40
1
40
1
40
1
40
1
40
1
40
1
10
6.4999998547138205
20
-261.59999415278435
30
-7.1054273576010019e-13
10
6.7852956418046517
20
-261.64470779184364
30
-7.1054273576010019e-13
10
7.3572777813321011
20
-261.7345489696786
30
-7.1054273576010019e-13
10
8.2194228729009922
20
-261.87055250483047
30
-7.2830630415410269e-13
10
9.3772972475071015
20
-262.05437510705832
30
-7.2830630415410269e-13
10
10.838319498503921
20
-262.28807866197207
30
-7.2830630415410269e-13
10
12.312235710668347
20
-262.52503275963016
30
-7.1054273576010019e-13
10
13.797485442376569
20
-262.76389399433862
30
-7.2830630415410269e-13
10
15.291309807324751
20
-263.002365593945
30
-7.2830630415410269e-13
10
16.789910485539821
20
-263.2371304708613
30
-7.2830630415410269e-13
10
18.290225531485476
20
-263.46442605501625
30
-7.2830630415410269e-13
10
19.791564899331888
20
-263.68052562385861
30
-7.2830630415410269e-13
10
21.29701152273185
20
-263.88221539298775
30
-7.2830630415410269e-13
10
22.815638719763598
20
-264.06737317318385
30
-7.1054273576010019e-13
10
24.361915671833572
20
-264.23515940421532
30
-7.2830630415410269e-13
10
25.950867340480386
20
-264.38559277004526
30
-7.2830630415410269e-13
10
27.594044597929752
20
-264.51927216301613
30
-7.2830630415410269e-13
10
29.295579365543745
20
-264.63704644557788
30
-7.2830630415410269e-13
10
31.047184005504533
20
-264.73969710929157
30
-7.2830630415410269e-13
10
32.826824069344269
20
-264.82765052882587
30
-7.2830630415410269e-13
10
34.606940839846914
20
-264.90078504222009
30
-7.460698725481052e-13
10
36.360628747766128
20
-264.95822759070074
30
-7.460698725481052e-13
10
38.068994777418936
20
-264.99813243623413
30
-7.460698725481052e-13
10
39.72716852904469
20
-265.01751318868224
30
-7.460698725481052e-13
10
41.353139087855908
20
-265.01192684367669
30
-7.460698725481052e-13
10
42.981717258144698
20
-264.97597618052362
30
-7.460698725481052e-13
10
44.65367666577464
20
-264.90407690150766
30
-7.460698725481052e-13
10
46.406142747519965
20
-264.79116395431572
30
-7.638334409421077e-13
10
48.263266612726596
20
-264.63336541321388
30
-7.460698725481052e-13
10
50.22479799282479
20
-264.42883787864366
30
-7.460698725481052e-13
10
52.261965678997626
20
-264.17806174203542
30
-7.638334409421077e-13
10
54.329334624681707
20
-263.88296005602047
30
-7.638334409421077e-13
10
56.373299340833398
20
-263.54626652669992
30
-7.460698725481052e-13
10
58.341887577990406
20
-263.17079782311811
30
-7.638334409421077e-13
10
60.194007227482871
20
-262.75876921552674
30
-7.638334409421077e-13
10
61.908942127916475
20
-262.31109066873989
30
-7.638334409421077e-13
10
63.495829064238336
20
-261.82667145875422
30
-7.638334409421077e-13
10
64.982449608141479
20
-261.30255118643106
30
-7.460698725481052e-13
10
66.404198025301042
20
-260.73404662828801
30
-7.638334409421077e-13
10
67.792686657219576
20
-260.11485610655421
30
-7.638334409421077e-13
10
69.165261307030192
20
-259.43725384894566
30
-7.638334409421077e-13
10
70.512104244719751
20
-258.69204403280224
30
-7.638334409421077e-13
10
71.803945819838901
20
-257.87059157499243
30
-7.460698725481052e-13
10
73.003270303619274
20
-256.967224462091
30
-7.638334409421077e-13
10
74.074186113924299
20
-255.9814800513505
30
-7.638334409421077e-13
10
74.993052174498729
20
-254.92051003072984
30
-7.638334409421077e-13
10
75.758267901317993
20
-253.80122505603424
30
-7.638334409421077e-13
10
76.382824967872835
20
-252.64597378021978
30
-7.638334409421077e-13
10
76.88717240150865
20
-251.47827868557914
30
-7.638334409421077e-13
10
77.292443702863807
20
-250.31886843447498
30
-7.638334409421077e-13
10
77.612408984277579
20
-249.18079652293258
30
-7.460698725481052e-13
10
77.805515206779461
20
-248.29244276389531
30
-7.638334409421077e-13
10
77.916079394306763
20
-247.63956670281232
30
-7.638334409421077e-13
10
77.974564440917931
20
-247.21025929524632
30
-7.460698725481052e-13
10
78.000001162290857
20
-246.99709162430418
30
-7.638334409421077e-13
0
LINE
5
107
100
AcDbEntity
8
0
100
AcDbLine
10
78.000001162290857
20
-246.9970916243042
30
-7.638334409421078e-13
11
93.500001393258628
21
-29.000000432133675
31
-4.4582393332603942e-13
0
LINE
5
108
100
AcDbEntity
8
0
100
AcDbLine
10
93.500001393258628
20
-29.000000432133675
30
-4.4582393332603942e-13
11
67.854565723203791
21
-18.858102890577292
31
-4.1161518637977679e-13
0
LINE
5
109
100
AcDbEntity
8
0
100
AcDbLine
10
67.854565723203791
20
-18.858102890577292
30
-4.1161518637977679e-13
11
67.854565723203848
21
18.858102890577292
31
-3.730349362740526e-13
0
LINE
5
110
100
AcDbEntity
8
0
100
AcDbLine
10
42.854565723203848
20
-246.99709162430418
30
-7.1054273576010019e-13
11
42.854565723203848
21
246.99709162430418
31
-3.8735865111968216e-14
0
LINE
5
111
100
AcDbEntity
8
0
100
AcDbLine
10
42.854565723203848
20
246.99709162430418
30
-3.8735865111968216e-14
11
6.4999998547137938
21
261.59999415278435
31
1.8873791418627661e-14
0
SPLINE
5
112
100
AcDbEntity
8
0
100
AcDbSpline
70
1064
71
5
72
41
73
35
74
0
42
0.000000001
43
0.0000000001
44
0.0000000001
40
-1
40
-1
40
-1
40
-1
40
-1
40
-1
40
-0.96666666666666656
40
-0.93333333333333324
40
-0.89999999999999991
40
-0.86666666666666659
40
-0.83333333333333326
40
-0.79999999999999993
40
-0.76666666666666661
40
-0.73333333333333328
40
-0.69999999999999996
40
-0.66666666666666663
40
-0.6333333333333333
40
-0.59999999999999998
40
-0.56666666666666665
40
-0.53333333333333333
40
-0.49999999999999994
40
-0.46666666666666662
40
-0.43333333333333329
40
-0.39999999999999997
40
-0.36666666666666664
40
-0.33333333333333331
40
-0.29999999999999999
40
-0.26666666666666666
40
-0.23333333333333331
40
-0.19999999999999998
40
-0.16666666666666666
40
-0.13333333333333333
40
-0.10000000000000001
40
-0.066666666666666666
40
-0.033333333333333333
40
-0
40
-0
40
-0
40
-0
40
-0
40
-0
10
6.4999998547136784
20
261.59999415278435
30
0
10
6.3308740882685299
20
261.5772094911801
30
0
10
5.9848827484533729
20
261.52622302376562
30
0
10
5.4426765182437009
20
261.43349199679898
30
1.7763568394002505e-14
10
4.6732105937414303
20
261.27728818867843
30
0
10
3.6346060628525834
20
261.02799207935129
30
1.7763568394002505e-14
10
2.522362155422968
20
260.72592581897629
30
0
10
1.3434718101883902
20
260.37412649982622
30
0
10
0.11011574580479078
20
259.97803359281556
30
0
10
-1.1584560417411183
20
259.54641698079337
30
0
10
-2.4385935550270688
20
259.08991057833072
30
0
10
-3.7056893419216408
20
258.61913588634923
30
0
10
-4.937237673355952
20
258.14303471733365
30
1.7763568394002505e-14
10
-6.1162790156815561
20
257.66698247100896
30
1.7763568394002505e-14
10
-7.2342221260949202
20
257.19126851792703
30
0
10
-8.2952623166015371
20
256.7086389585653
30
0
10
-9.3138743658094825
20
256.20593558846292
30
1.7763568394002505e-14
10
-10.308750439801884
20
255.66784226953999
30
0
10
-11.297828550772522
20
255.07999599849339
30
0
10
-12.293024788081368
20
254.43228276839915
30
0
10
-13.294719216022202
20
253.72229231181504
30
1.7763568394002505e-14
10
-14.287265117497014
20
252.95817857911698
30
0
10
-15.245378166775794
20
252.15512269647959
30
1.7763568394002505e-14
10
-16.139405706173022
20
251.33245255459457
30
0
10
-16.941237954431045
20
250.51044940841464
30
0
10
-17.629383632958593
20
249.70755398400837
30
0
10
-18.195862723481184
20
248.93679308079638
30
0
10
-18.647342255538746
20
248.20468558657336
30
1.7763568394002505e-14
10
-18.998141031709963
20
247.51360211503788
30
1.7763568394002505e-14
10
-19.265518800241495
20
246.8631931176925
30
0
10
-19.463629799541451
20
246.25226815479206
30
0
10
-19.572295844799612
20
245.7945663949846
30
0
10
-19.626961929998288
20
245.46857286933732
30
0
10
-19.651496039496266
20
245.25891238103833
30
0
10
-19.660785925513977
20
245.15599920162447
30
0
0
LINE
5
113
100
AcDbEntity
8
0
100
AcDbLine
10
-19.660785925513974
20
245.15599920162447
30
0
11
-42.854565723203365
21
26.54272729123722
31
-2.6284530108000581e-13
0
LINE
5
114
100
AcDbEntity
8
0
100
AcDbLine
10
-42.854565723203365
20
26.54272729123722
30
-2.6284530108000581e-13
11
-42.854565723203422
21
-26.542727291237235
31
-3.3864703411180882e-13
0
LINE
5
115
100
AcDbEntity
8
0
100
AcDbLine
10
-42.854565723203422
20
-26.542727291237235
30
-3.3864703411180882e-13
11
-19.660785925513888
21
-245.15599920162452
31
-6.514233596988106e-13
0
SPLINE
5
116
100
AcDbEntity
8
0
100
AcDbSpline
70
1064
71
5
72
41
73
35
74
0
42
0.000000001
43
0.0000000001
44
0.0000000001
40
0
40
0
40
0
40
0
40
0
40
0
40
0.033333333333333333
40
0.066666666666666666
40
0.10000000000000001
40
0.13333333333333333
40
0.16666666666666666
40
0.19999999999999998
40
0.23333333333333331
40
0.26666666666666666
40
0.29999999999999999
40
0.33333333333333331
40
0.36666666666666664
40
0.39999999999999997
40
0.43333333333333329
40
0.46666666666666662
40
0.49999999999999994
40
0.53333333333333333
40
0.56666666666666665
40
0.59999999999999998
40
0.6333333333333333
40
0.66666666666666663
40
0.69999999999999996
40
0.73333333333333328
40
0.76666666666666661
40
0.79999999999999993
40
0.83333333333333326
40
0.86666666666666659
40
0.89999999999999991
40
0.93333333333333324
40
0.96666666666666656
40
1
40
1
40
1
40
1
40
1
40
1
10
-19.660785925513977
20
-245.15599920162455
30
-6.5725203057809267e-13
10
-19.651496039496266
20
-245.25891238103839
30
-6.5725203057809267e-13
10
-19.626961929998288
20
-245.46857286933741
30
-6.5725203057809267e-13
10
-19.572295844799612
20
-245.79456639498466
30
-6.7501559897209518e-13
10
-19.463629799541451
20
-246.25226815479212
30
-6.5725203057809267e-13
10
-19.265518800241495
20
-246.86319311769256
30
-6.7501559897209518e-13
10
-18.998141031709963
20
-247.51360211503794
30
-6.5725203057809267e-13
10
-18.647342255538746
20
-248.20468558657342
30
-6.5725203057809267e-13
10
-18.195862723481184
20
-248.93679308079643
30
-6.7501559897209518e-13
10
-17.629383632958593
20
-249.70755398400843
30
-6.7501559897209518e-13
10
-16.941237954431045
20
-250.51044940841473
30
-6.9277916736609768e-13
10
-16.139405706173022
20
-251.33245255459462
30
-6.7501559897209518e-13
10
-15.245378166775794
20
-252.15512269647968
30
-6.7501559897209518e-13
10
-14.287265117497014
20
-252.95817857911698
30
-6.9277916736609768e-13
10
-13.294719216022202
20
-253.72229231181504
30
-6.7501559897209518e-13
10
-12.293024788081368
20
-254.43228276839915
30
-6.9277916736609768e-13
10
-11.297828550772522
20
-255.07999599849339
30
-6.9277916736609768e-13
10
-10.308750439801884
20
-255.66784226953999
30
-6.9277916736609768e-13
10
-9.3138743658094825
20
-256.20593558846292
30
-6.9277916736609768e-13
10
-8.2952623166015371
20
-256.7086389585653
30
-6.9277916736609768e-13
10
-7.2342221260949202
20
-257.19126851792703
30
-6.9277916736609768e-13
10
-6.1162790156815561
20
-257.66698247100896
30
-6.9277916736609768e-13
10
-4.937237673355952
20
-258.14303471733365
30
-6.9277916736609768e-13
10
-3.7056893419216408
20
-258.61913588634923
30
-6.9277916736609768e-13
10
-2.4385935550270688
20
-259.08991057833072
30
-6.9277916736609768e-13
10
-1.1584560417411183
20
-259.54641698079337
30
-7.1054273576010019e-13
10
0.11011574580479078
20
-259.97803359281556
30
-7.1054273576010019e-13
10
1.3434718101883902
20
-260.37412649982622
30
-7.1054273576010019e-13
10
2.522362155422968
20
-260.72592581897629
30
-7.1054273576010019e-13
10
3.6346060628525834
20
-261.02799207935129
30
-6.9277916736609768e-13
10
4.6732105937414303
20
-261.27728818867843
30
-7.1054273576010019e-13
10
5.4426765182437009
20
-261.43349199679898
30
-6.9277916736609768e-13
10
5.9848827484533729
20
-261.52622302376562
30
-7.1054273576010019e-13
10
6.3308740882685299
20
-261.5772094911801
30
-7.1054273576010019e-13
10
6.4999998547136784
20
-261.59999415278435
30
-7.1054273576010019e-13
0
LINE
5
117
100
AcDbEntity
8
0
100
AcDbLine
10
6.4999998547136784
20
-261.59999415278435
30
-7.1054273576010029e-13
11
42.854565723203848
21
-246.99709162430418
31
-7.1054273576010019e-13
0
LWPOLYLINE
5
118
100
AcDbEntity
8
0
100
AcDbPolyline
90
4
70
1
43
0.0
10
-22.854565723203251
20
-2.4999999999999996
10
7.1454342767967205
20
-2.5
10
7.1454342767966939
20
2.5
10
-22.85456572320328
20
2.5
0
LWPOLYLINE
5
119
100
AcDbEntity
8
0
100
AcDbPolyline
90
4
70
1
43
0.0
10
-22.934055420518366
20
17.602942581480121
10
-23.75903671042181
20
12.684947053887722
10
5.833430130621946
20
7.7567468665252948
10
6.6595148747651223
20
12.681320462108873
0
LWPOLYLINE
5
120
100
AcDbEntity
8
0
100
AcDbPolyline
90
4
70
1
43
0.0
10
-23.759036710421878
20
-12.684947053876986
10
-22.934055420518433
20
-17.602942581469353
10
6.6595148747651534
20
-12.68132046209811
10
5.833430130621946
20
-7.7567468665145523
0
LINE
5
121
100
AcDbEntity
8
0
100
AcDbLine
10
47.854565723203876
20
246.99709162430418
30
-3.6637359812630166e-14
11
47.854565723203848
21
-246.99709162430418
31
-7.0733400743613698e-13
0
LINE
5
122
100
AcDbEntity
8
0
100
AcDbLine
10
47.854565723203848
20
-246.99709162430418
30
-7.0733400743613698e-13
11
42.854565723203848
21
-246.99709162430418
31
-7.1054273576010019e-13
0
LINE
5
123
100
AcDbEntity
8
0
100
AcDbLine
10
47.854565723203876
20
246.99709162430418
30
-3.6637359812630166e-14
11
42.854565723203848
21
246.99709162430418
31
-3.8735865111968216e-14
0
ENDSEC
0
SECTION
2
OBJECTS
0
DICTIONARY
5
C
100
AcDbDictionary
3
ACAD_GROUP
350
D
3
ACAD_MLINESTYLE
350
17
0
DICTIONARY
5
D
100
AcDbDictionary
0
DICTIONARY
5
1A
330
C
100
AcDbDictionary
0
DICTIONARY
5
17
100
AcDbDictionary
0
ENDSEC
0
EOF
