  0
SECTION
  2
HEADER
  9
$ACADVER
  1
AC1015
  9
$ACADMAINTVER
 70
     6
  9
$DWGCODEPAGE
  3
ANSI_1252
  9
$INSBASE
 10
0.0
 20
0.0
 30
0.0
  9
$EXTMIN
 10
30.00636848302487
 20
0.8045005554732683
 30
0.0
  9
$EXTMAX
 10
94.09498804319823
 20
31.00548488008342
 30
0.0
  9
$LIMMIN
 10
0.0
 20
0.0
  9
$LIMMAX
 10
12.0
 20
9.0
  9
$ORTHOMODE
 70
     0
  9
$REGENMODE
 70
     1
  9
$FILLMODE
 70
     1
  9
$QTEXTMODE
 70
     0
  9
$MIRRTEXT
 70
     0
  9
$LTSCALE
 40
1.0
  9
$ATTMODE
 70
     1
  9
$TEXTSIZE
 40
0.2
  9
$TRACEWID
 40
0.05
  9
$TEXTSTYLE
  7
Standard
  9
$CLAYER
  8
0
  9
$CELTYPE
  6
ByLayer
  9
$CECOLOR
 62
   256
  9
$CELTSCALE
 40
1.0
  9
$DISPSILH
 70
     0
  9
$DIMSCALE
 40
1.0
  9
$DIMASZ
 40
0.18
  9
$DIMEXO
 40
0.0625
  9
$DIMDLI
 40
0.38
  9
$DIMRND
 40
0.0
  9
$DIMDLE
 40
0.0
  9
$DIMEXE
 40
0.18
  9
$DIMTP
 40
0.0
  9
$DIMTM
 40
0.0
  9
$DIMTXT
 40
0.18
  9
$DIMCEN
 40
0.09
  9
$DIMTSZ
 40
0.0
  9
$DIMTOL
 70
     0
  9
$DIMLIM
 70
     0
  9
$DIMTIH
 70
     1
  9
$DIMTOH
 70
     1
  9
$DIMSE1
 70
     0
  9
$DIMSE2
 70
     0
  9
$DIMTAD
 70
     0
  9
$DIMZIN
 70
     0
  9
$DIMBLK
  1

  9
$DIMASO
 70
     1
  9
$DIMSHO
 70
     1
  9
$DIMPOST
  1

  9
$DIMAPOST
  1

  9
$DIMALT
 70
     0
  9
$DIMALTD
 70
     2
  9
$DIMALTF
 40
25.4
  9
$DIMLFAC
 40
1.0
  9
$DIMTOFL
 70
     0
  9
$DIMTVP
 40
0.0
  9
$DIMTIX
 70
     0
  9
$DIMSOXD
 70
     0
  9
$DIMSAH
 70
     0
  9
$DIMBLK1
  1

  9
$DIMBLK2
  1

  9
$DIMSTYLE
  2
Standard
  9
$DIMCLRD
 70
     0
  9
$DIMCLRE
 70
     0
  9
$DIMCLRT
 70
     0
  9
$DIMTFAC
 40
1.0
  9
$DIMGAP
 40
0.09
  9
$DIMJUST
 70
     0
  9
$DIMSD1
 70
     0
  9
$DIMSD2
 70
     0
  9
$DIMTOLJ
 70
     1
  9
$DIMTZIN
 70
     0
  9
$DIMALTZ
 70
     0
  9
$DIMALTTZ
 70
     0
  9
$DIMUPT
 70
     0
  9
$DIMDEC
 70
     4
  9
$DIMTDEC
 70
     4
  9
$DIMALTU
 70
     2
  9
$DIMALTTD
 70
     2
  9
$DIMTXSTY
  7
Standard
  9
$DIMAUNIT
 70
     0
  9
$DIMADEC
 70
     0
  9
$DIMALTRND
 40
0.0
  9
$DIMAZIN
 70
     0
  9
$DIMDSEP
 70
    46
  9
$DIMATFIT
 70
     3
  9
$DIMFRAC
 70
     0
  9
$DIMLDRBLK
  1

  9
$DIMLUNIT
 70
     2
  9
$DIMLWD
 70
    -2
  9
$DIMLWE
 70
    -2
  9
$DIMTMOVE
 70
     0
  9
$LUNITS
 70
     2
  9
$LUPREC
 70
     4
  9
$SKETCHINC
 40
0.1
  9
$FILLETRAD
 40
0.125
  9
$AUNITS
 70
     0
  9
$AUPREC
 70
     0
  9
$MENU
  1
.
  9
$ELEVATION
 40
0.0
  9
$PELEVATION
 40
0.0
  9
$THICKNESS
 40
0.0
  9
$LIMCHECK
 70
     0
  9
$CHAMFERA
 40
0.0
  9
$CHAMFERB
 40
0.0
  9
$CHAMFERC
 40
0.0
  9
$CHAMFERD
 40
0.0
  9
$SKPOLY
 70
     0
  9
$TDCREATE
 40
2452642.896717604
  9
$TDUCREATE
 40
2452643.063384271
  9
$TDUPDATE
 40
2458764.594746458
  9
$TDUUPDATE
 40
2458764.761413125
  9
$TDINDWG
 40
0.174729456
  9
$TDUSRTIMER
 40
2458764.760966285
  9
$USRTIMER
 70
     1
  9
$ANGBASE
 50
0.0
  9
$ANGDIR
 70
     0
  9
$PDMODE
 70
     0
  9
$PDSIZE
 40
0.0
  9
$PLINEWID
 40
0.0
  9
$SPLFRAME
 70
     0
  9
$SPLINETYPE
 70
     6
  9
$SPLINESEGS
 70
     8
  9
$HANDSEED
  5
21FE
  9
$SURFTAB1
 70
     6
  9
$SURFTAB2
 70
     6
  9
$SURFTYPE
 70
     6
  9
$SURFU
 70
     6
  9
$SURFV
 70
     6
  9
$UCSBASE
  2

  9
$UCSNAME
  2

  9
$UCSORG
 10
0.0
 20
0.0
 30
0.0
  9
$UCSXDIR
 10
1.0
 20
0.0
 30
0.0
  9
$UCSYDIR
 10
0.0
 20
1.0
 30
0.0
  9
$UCSORTHOREF
  2

  9
$UCSORTHOVIEW
 70
     0
  9
$UCSORGTOP
 10
0.0
 20
0.0
 30
0.0
  9
$UCSORGBOTTOM
 10
0.0
 20
0.0
 30
0.0
  9
$UCSORGLEFT
 10
0.0
 20
0.0
 30
0.0
  9
$UCSORGRIGHT
 10
0.0
 20
0.0
 30
0.0
  9
$UCSORGFRONT
 10
0.0
 20
0.0
 30
0.0
  9
$UCSORGBACK
 10
0.0
 20
0.0
 30
0.0
  9
$PUCSBASE
  2

  9
$PUCSNAME
  2

  9
$PUCSORG
 10
0.0
 20
0.0
 30
0.0
  9
$PUCSXDIR
 10
1.0
 20
0.0
 30
0.0
  9
$PUCSYDIR
 10
0.0
 20
1.0
 30
0.0
  9
$PUCSORTHOREF
  2

  9
$PUCSORTHOVIEW
 70
     0
  9
$PUCSORGTOP
 10
0.0
 20
0.0
 30
0.0
  9
$PUCSORGBOTTOM
 10
0.0
 20
0.0
 30
0.0
  9
$PUCSORGLEFT
 10
0.0
 20
0.0
 30
0.0
  9
$PUCSORGRIGHT
 10
0.0
 20
0.0
 30
0.0
  9
$PUCSORGFRONT
 10
0.0
 20
0.0
 30
0.0
  9
$PUCSORGBACK
 10
0.0
 20
0.0
 30
0.0
  9
$USERI1
 70
     0
  9
$USERI2
 70
     0
  9
$USERI3
 70
     0
  9
$USERI4
 70
     0
  9
$USERI5
 70
     0
  9
$USERR1
 40
0.0
  9
$USERR2
 40
0.0
  9
$USERR3
 40
0.0
  9
$USERR4
 40
0.0
  9
$USERR5
 40
0.0
  9
$WORLDVIEW
 70
     1
  9
$SHADEDGE
 70
     3
  9
$SHADEDIF
 70
    70
  9
$TILEMODE
 70
     1
  9
$MAXACTVP
 70
    64
  9
$PINSBASE
 10
0.0
 20
0.0
 30
0.0
  9
$PLIMCHECK
 70
     0
  9
$PEXTMIN
 10
0.0
 20
0.0
 30
0.0
  9
$PEXTMAX
 10
0.0
 20
0.0
 30
0.0
  9
$PLIMMIN
 10
0.0
 20
0.0
  9
$PLIMMAX
 10
0.0
 20
0.0
  9
$UNITMODE
 70
     0
  9
$VISRETAIN
 70
     1
  9
$PLINEGEN
 70
     0
  9
$PSLTSCALE
 70
     1
  9
$TREEDEPTH
 70
  3020
  9
$CMLSTYLE
  2
Standard
  9
$CMLJUST
 70
     0
  9
$CMLSCALE
 40
1.0
  9
$PROXYGRAPHICS
 70
     1
  9
$MEASUREMENT
 70
     0
  9
$CELWEIGHT
370
    -1
  9
$ENDCAPS
280
     0
  9
$JOINSTYLE
280
     0
  9
$LWDISPLAY
290
     0
  9
$INSUNITS
 70
     1
  9
$HYPERLINKBASE
  1

  9
$STYLESHEET
  1

  9
$XEDIT
290
     1
  9
$CEPSNTYPE
380
     0
  9
$PSTYLEMODE
290
     1
  9
$FINGERPRINTGUID
  2
{FDEAD576-A652-11D2-9A35-0060089B3A3F}
  9
$VERSIONGUID
  2
{FBC2AE19-5C5C-49EC-81BC-71B1A3362A02}
  9
$EXTNAMES
290
     1
  9
$PSVPSCALE
 40
0.0
  9
$OLESTARTUP
290
     0
  0
ENDSEC
  0
SECTION
  2
CLASSES
  0
CLASS
  1
ACDBDICTIONARYWDFLT
  2
AcDbDictionaryWithDefault
  3
ObjectDBX Classes
 90
        0
280
     0
281
     0
  0
CLASS
  1
ACDBPLACEHOLDER
  2
AcDbPlaceHolder
  3
ObjectDBX Classes
 90
        0
280
     0
281
     0
  0
CLASS
  1
LAYOUT
  2
AcDbLayout
  3
ObjectDBX Classes
 90
        0
280
     0
281
     0
  0
CLASS
  1
DICTIONARYVAR
  2
AcDbDictionaryVar
  3
ObjectDBX Classes
 90
        0
280
     0
281
     0
  0
CLASS
  1
TABLESTYLE
  2
AcDbTableStyle
  3
ObjectDBX Classes
 90
     4095
280
     0
281
     0
  0
CLASS
  1
MATERIAL
  2
AcDbMaterial
  3
ObjectDBX Classes
 90
     1153
280
     0
281
     0
  0
CLASS
  1
VISUALSTYLE
  2
AcDbVisualStyle
  3
ObjectDBX Classes
 90
     4095
280
     0
281
     0
  0
CLASS
  1
SCALE
  2
AcDbScale
  3
ObjectDBX Classes
 90
     1153
280
     0
281
     0
  0
CLASS
  1
CELLSTYLEMAP
  2
AcDbCellStyleMap
  3
ObjectDBX Classes
 90
     1152
280
     0
281
     0
  0
CLASS
  1
RASTERVARIABLES
  2
AcDbRasterVariables
  3
ISM
 90
        0
280
     0
281
     0
  0
CLASS
  1
SUN
  2
AcDbSun
  3
SCENEOE
 90
     1153
280
     0
281
     0
  0
CLASS
  1
MLEADERSTYLE
  2
AcDbMLeaderStyle
  3
ACDB_MLEADERSTYLE_CLASS
 90
     4095
280
     0
281
     0
  0
CLASS
  1
DIMASSOC
  2
AcDbDimAssoc
  3
"AcDbDimAssoc|Product Desc:     AcDim ARX App For Dimension|Company:          Autodesk, Inc.|WEB Address:      www.autodesk.com"
 90
        0
280
     0
281
     0
  0
ENDSEC
  0
SECTION
  2
TABLES
  0
TABLE
  2
VPORT
  5
8
330
0
100
AcDbSymbolTable
 70
     1
  0
VPORT
  5
94
330
8
100
AcDbSymbolTableRecord
100
AcDbViewportTableRecord
  2
*Active
 70
     0
 10
0.0
 20
0.0
 11
1.0
 21
1.0
 12
89.13240143318919
 22
34.98425893234703
 13
0.0
 23
0.0
 14
0.5
 24
0.5
 15
0.5
 25
0.5
 16
0.0
 26
0.0
 36
1.0
 17
-27.6695935659782
 27
-19.53870295786166
 37
0.0
 40
34.97106943804805
 41
2.377672209026128
 42
50.0
 43
0.0
 44
0.0
 50
0.0
 51
0.0
 71
    16
 72
  1000
 73
     1
 74
     3
 75
     0
 76
     0
 77
     0
 78
     0
281
     0
 65
     1
110
0.0
120
0.0
130
0.0
111
1.0
121
0.0
131
0.0
112
0.0
122
1.0
132
0.0
 79
     0
146
0.0
  0
ENDTAB
  0
TABLE
  2
LTYPE
  5
5
330
0
100
AcDbSymbolTable
 70
     1
  0
LTYPE
  5
14
330
5
100
AcDbSymbolTableRecord
100
AcDbLinetypeTableRecord
  2
ByBlock
 70
     0
  3

 72
    65
 73
     0
 40
0.0
  0
LTYPE
  5
15
330
5
100
AcDbSymbolTableRecord
100
AcDbLinetypeTableRecord
  2
ByLayer
 70
     0
  3

 72
    65
 73
     0
 40
0.0
  0
LTYPE
  5
16
330
5
100
AcDbSymbolTableRecord
100
AcDbLinetypeTableRecord
  2
Continuous
 70
     0
  3
Solid line
 72
    65
 73
     0
 40
0.0
  0
ENDTAB
  0
TABLE
  2
LAYER
  5
2
102
{ACAD_XDICTIONARY
360
2D8
102
}
330
0
100
AcDbSymbolTable
 70
     7
  0
LAYER
  5
10
330
2
100
AcDbSymbolTableRecord
100
AcDbLayerTableRecord
  2
0
 70
     0
 62
     7
  6
Continuous
370
    -3
390
F
  0
LAYER
  5
12A
330
2
100
AcDbSymbolTableRecord
100
AcDbLayerTableRecord
  2
Layer1
 70
     0
 62
     1
  6
Continuous
370
    -3
390
F
1001
AcAecLayerStandard
1000

1000

  0
LAYER
  5
12D
330
2
100
AcDbSymbolTableRecord
100
AcDbLayerTableRecord
  2
Layer2
 70
     0
 62
     4
  6
Continuous
370
    -3
390
F
1001
AcAecLayerStandard
1000

1000

  0
LAYER
  5
12E
330
2
100
AcDbSymbolTableRecord
100
AcDbLayerTableRecord
  2
Layer3
 70
     0
 62
     7
  6
Continuous
370
    -3
390
F
1001
AcAecLayerStandard
1000

1000

  0
LAYER
  5
6BE
330
2
100
AcDbSymbolTableRecord
100
AcDbLayerTableRecord
  2
Defpoints
 70
     0
 62
     7
  6
Continuous
290
     0
370
    -3
390
F
  0
LAYER
  5
B42
330
2
100
AcDbSymbolTableRecord
100
AcDbLayerTableRecord
  2
Layer 1
 70
     0
 62
     7
  6
Continuous
370
    -3
390
F
  0
LAYER
  5
2060
330
2
100
AcDbSymbolTableRecord
100
AcDbLayerTableRecord
  2
Layer4
 70
     0
 62
     2
  6
Continuous
370
    -3
390
F
1001
AcAecLayerStandard
1000

1000

  0
ENDTAB
  0
TABLE
  2
STYLE
  5
3
330
0
100
AcDbSymbolTable
 70
     2
  0
STYLE
  5
11
330
3
100
AcDbSymbolTableRecord
100
AcDbTextStyleTableRecord
  2
Standard
 70
     0
 40
0.0
 41
1.0
 50
0.0
 71
     0
 42
0.2
  3
arial.ttf
  4

1001
ACAD
1000
Arial
1071
        0
  0
STYLE
  5
125
330
3
100
AcDbSymbolTableRecord
100
AcDbTextStyleTableRecord
  2
Annotative
 70
     0
 40
0.0
 41
1.0
 50
0.0
 71
     0
 42
0.2
  3
arial.ttf
  4

1001
ACAD
1000
Arial
1071
        0
1001
AcadAnnotative
1000
AnnotativeData
1002
{
1070
     1
1070
     1
1002
}
  0
ENDTAB
  0
TABLE
  2
VIEW
  5
6
330
0
100
AcDbSymbolTable
 70
     0
  0
ENDTAB
  0
TABLE
  2
UCS
  5
7
330
0
100
AcDbSymbolTable
 70
     0
  0
ENDTAB
  0
TABLE
  2
APPID
  5
9
330
0
100
AcDbSymbolTable
 70
     3
  0
APPID
  5
12
330
9
100
AcDbSymbolTableRecord
100
AcDbRegAppTableRecord
  2
ACAD
 70
     0
  0
APPID
  5
126
330
9
100
AcDbSymbolTableRecord
100
AcDbRegAppTableRecord
  2
AcadAnnotative
 70
     0
  0
APPID
  5
12C
330
9
100
AcDbSymbolTableRecord
100
AcDbRegAppTableRecord
  2
AcAecLayerStandard
 70
     0
  0
ENDTAB
  0
TABLE
  2
DIMSTYLE
  5
A
330
0
100
AcDbSymbolTable
 70
     3
100
AcDbDimStyleTable
  0
DIMSTYLE
105
27
330
A
100
AcDbSymbolTableRecord
100
AcDbDimStyleTableRecord
  2
Standard
 70
     0
178
     0
340
11
  0
DIMSTYLE
105
127
330
A
100
AcDbSymbolTableRecord
100
AcDbDimStyleTableRecord
  2
Annotative
 70
     0
 40
0.0
178
     0
340
11
1001
AcadAnnotative
1000
AnnotativeData
1002
{
1070
     1
1070
     1
1002
}
  0
DIMSTYLE
105
5F5
330
A
100
AcDbSymbolTableRecord
100
AcDbDimStyleTableRecord
  2
Din-1
 70
     0
 41
2.5
 42
0.625
 43
3.75
 44
1.25
 73
     0
 74
     0
 77
     1
 78
     8
140
2.5
141
2.5
143
0.03937007874016
147
0.625
171
     3
172
     1
178
     0
271
     2
272
     2
274
     3
278
    44
283
     0
284
     8
340
11
  0
ENDTAB
  0
TABLE
  2
BLOCK_RECORD
  5
1
330
0
100
AcDbSymbolTable
 70
    11
  0
BLOCK_RECORD
  5
1F
330
1
100
AcDbSymbolTableRecord
100
AcDbBlockTableRecord
  2
*Model_Space
340
22
  0
BLOCK_RECORD
  5
58
330
1
100
AcDbSymbolTableRecord
100
AcDbBlockTableRecord
  2
*Paper_Space
340
59
  0
BLOCK_RECORD
  5
5D
330
1
100
AcDbSymbolTableRecord
100
AcDbBlockTableRecord
  2
*Paper_Space0
340
5E
  0
BLOCK_RECORD
  5
6C2
330
1
100
AcDbSymbolTableRecord
100
AcDbBlockTableRecord
  2
*D1
340
0
  0
BLOCK_RECORD
  5
132D
330
1
100
AcDbSymbolTableRecord
100
AcDbBlockTableRecord
  2
*D2
340
0
  0
BLOCK_RECORD
  5
133D
330
1
100
AcDbSymbolTableRecord
100
AcDbBlockTableRecord
  2
*D3
340
0
  0
BLOCK_RECORD
  5
13FD
330
1
100
AcDbSymbolTableRecord
100
AcDbBlockTableRecord
  2
*D4
340
0
  0
BLOCK_RECORD
  5
1539
330
1
100
AcDbSymbolTableRecord
100
AcDbBlockTableRecord
  2
*D5
340
0
  0
BLOCK_RECORD
  5
155B
330
1
100
AcDbSymbolTableRecord
100
AcDbBlockTableRecord
  2
*D6
340
0
  0
BLOCK_RECORD
  5
2065
330
1
100
AcDbSymbolTableRecord
100
AcDbBlockTableRecord
  2
*D7
340
0
  0
BLOCK_RECORD
  5
20C3
330
1
100
AcDbSymbolTableRecord
100
AcDbBlockTableRecord
  2
*D8
340
0
  0
ENDTAB
  0
ENDSEC
  0
SECTION
  2
BLOCKS
  0
BLOCK
  5
20
330
1F
100
AcDbEntity
  8
0
100
AcDbBlockBegin
  2
*Model_Space
 70
     0
 10
0.0
 20
0.0
 30
0.0
  3
*Model_Space
  1

  0
ENDBLK
  5
21
330
1F
100
AcDbEntity
  8
0
100
AcDbBlockEnd
  0
BLOCK
  5
5A
330
58
100
AcDbEntity
 67
     1
  8
0
100
AcDbBlockBegin
  2
*Paper_Space
 70
     0
 10
0.0
 20
0.0
 30
0.0
  3
*Paper_Space
  1

  0
ENDBLK
  5
5B
330
58
100
AcDbEntity
 67
     1
  8
0
100
AcDbBlockEnd
  0
BLOCK
  5
5F
330
5D
100
AcDbEntity
  8
0
100
AcDbBlockBegin
  2
*Paper_Space0
 70
     0
 10
0.0
 20
0.0
 30
0.0
  3
*Paper_Space0
  1

  0
ENDBLK
  5
60
330
5D
100
AcDbEntity
  8
0
100
AcDbBlockEnd
  0
BLOCK
  5
6C3
330
6C2
100
AcDbEntity
  8
0
100
AcDbBlockBegin
  2
*D1
 70
     1
 10
0.0
 20
0.0
 30
0.0
  3
*D1
  1

  0
LINE
  5
6C5
330
6C2
100
AcDbEntity
  8
0
 62
     0
370
    -2
100
AcDbLine
 10
41.8013844259638
 20
30.56798488008342
 30
0.0
 11
41.8013844259638
 21
31.71955969285175
 31
0.0
  0
LINE
  5
6C6
330
6C2
100
AcDbEntity
  8
0
 62
     0
370
    -2
100
AcDbLine
 10
42.6813844259638
 20
30.56798488008342
 30
0.0
 11
42.6813844259638
 21
31.71955969285175
 31
0.0
  0
LINE
  5
6C7
330
6C2
100
AcDbEntity
  8
0
 62
     0
370
    -2
100
AcDbLine
 10
41.8013844259638
 20
31.53955969285175
 30
0.0
 11
42.8613844259638
 21
31.53955969285175
 31
0.0
  0
LINE
  5
6C8
330
6C2
100
AcDbEntity
  8
0
 62
     0
370
    -2
100
AcDbLine
 10
41.9813844259638
 20
31.53955969285175
 30
0.0
 11
42.5013844259638
 21
31.53955969285175
 31
0.0
  0
LINE
  5
6C9
330
6C2
100
AcDbEntity
  8
0
 62
     0
370
    -2
100
AcDbLine
 10
42.5013844259638
 20
31.53955969285175
 30
0.0
 11
41.9813844259638
 21
31.53955969285175
 31
0.0
  0
SOLID
  5
6CA
330
6C2
100
AcDbEntity
  8
0
 62
     0
100
AcDbTrace
 10
41.9813844259638
 20
31.56955969285175
 30
0.0
 11
41.9813844259638
 21
31.50955969285175
 31
0.0
 12
41.8013844259638
 22
31.53955969285175
 32
0.0
 13
41.8013844259638
 23
31.53955969285175
 33
0.0
  0
SOLID
  5
6CB
330
6C2
100
AcDbEntity
  8
0
 62
     0
100
AcDbTrace
 10
42.5013844259638
 20
31.50955969285175
 30
0.0
 11
42.5013844259638
 21
31.56955969285175
 31
0.0
 12
42.6813844259638
 22
31.53955969285175
 32
0.0
 13
42.6813844259638
 23
31.53955969285175
 33
0.0
  0
MTEXT
  5
6CC
330
6C2
100
AcDbEntity
  8
0
 62
     0
100
AcDbMText
 10
43.3242544259638
 20
31.53955969285175
 30
0.0
 40
0.18
 41
0.0
 71
     5
 72
     1
  1
\A1;0.8800
 73
     1
 44
1.0
  0
POINT
  5
6CD
330
6C2
100
AcDbEntity
  8
Defpoints
 62
     0
100
AcDbPoint
 10
41.8013844259638
 20
30.50548488008342
 30
0.0
  0
POINT
  5
6CE
330
6C2
100
AcDbEntity
  8
Defpoints
 62
     0
100
AcDbPoint
 10
42.6813844259638
 20
30.50548488008342
 30
0.0
  0
POINT
  5
6CF
330
6C2
100
AcDbEntity
  8
Defpoints
 62
     0
100
AcDbPoint
 10
42.6813844259638
 20
31.53955969285175
 30
0.0
  0
ENDBLK
  5
6C4
330
6C2
100
AcDbEntity
  8
0
100
AcDbBlockEnd
  0
BLOCK
  5
132E
330
132D
100
AcDbEntity
  8
0
100
AcDbBlockBegin
  2
*D2
 70
     1
 10
0.0
 20
0.0
 30
0.0
  3
*D2
  1

  0
LINE
  5
1330
330
132D
100
AcDbEntity
  8
0
 62
     0
370
    -2
100
AcDbLine
 10
129.5652180116165
 20
26.92964589245233
 30
0.0
 11
129.5652180116165
 21
28.43387356000576
 31
0.0
  0
LINE
  5
1331
330
132D
100
AcDbEntity
  8
0
 62
     0
370
    -2
100
AcDbLine
 10
127.5241299073684
 20
26.92964589245233
 30
0.0
 11
127.5241299073684
 21
28.43387356000576
 31
0.0
  0
LINE
  5
1332
330
132D
100
AcDbEntity
  8
0
 62
     0
370
    -2
100
AcDbLine
 10
129.3852180116165
 20
28.25387356000576
 30
0.0
 11
128.9920639594925
 21
28.25387356000576
 31
0.0
  0
LINE
  5
1333
330
132D
100
AcDbEntity
  8
0
 62
     0
370
    -2
100
AcDbLine
 10
127.7041299073685
 20
28.25387356000576
 30
0.0
 11
128.0972839594924
 21
28.25387356000576
 31
0.0
  0
SOLID
  5
1334
330
132D
100
AcDbEntity
  8
0
 62
     0
100
AcDbTrace
 10
129.3852180116165
 20
28.22387356000576
 30
0.0
 11
129.3852180116165
 21
28.28387356000576
 31
0.0
 12
129.5652180116165
 22
28.25387356000576
 32
0.0
 13
129.5652180116165
 23
28.25387356000576
 33
0.0
  0
SOLID
  5
1335
330
132D
100
AcDbEntity
  8
0
 62
     0
100
AcDbTrace
 10
127.7041299073685
 20
28.28387356000576
 30
0.0
 11
127.7041299073685
 21
28.22387356000576
 31
0.0
 12
127.5241299073684
 22
28.25387356000576
 32
0.0
 13
127.5241299073684
 23
28.25387356000576
 33
0.0
  0
MTEXT
  5
1336
330
132D
100
AcDbEntity
  8
0
 62
     0
100
AcDbMText
 10
128.5446739594925
 20
28.25387356000576
 30
0.0
 40
0.18
 41
0.0
 71
     5
 72
     1
  1
\A1;2.0411
 73
     1
 44
1.0
  0
POINT
  5
1337
330
132D
100
AcDbEntity
  8
Defpoints
 62
     0
100
AcDbPoint
 10
129.5652180116165
 20
26.86714589245233
 30
0.0
  0
POINT
  5
1338
330
132D
100
AcDbEntity
  8
Defpoints
 62
     0
100
AcDbPoint
 10
127.5241299073684
 20
26.86714589245233
 30
0.0
  0
POINT
  5
1339
330
132D
100
AcDbEntity
  8
Defpoints
 62
     0
100
AcDbPoint
 10
127.5241299073684
 20
28.25387356000576
 30
0.0
  0
ENDBLK
  5
132F
330
132D
100
AcDbEntity
  8
0
100
AcDbBlockEnd
  0
BLOCK
  5
133E
330
133D
100
AcDbEntity
  8
0
100
AcDbBlockBegin
  2
*D3
 70
     1
 10
0.0
 20
0.0
 30
0.0
  3
*D3
  1

  0
LINE
  5
1340
330
133D
100
AcDbEntity
  8
0
 62
     0
370
    -2
100
AcDbLine
 10
109.6195154899772
 20
26.88654478857485
 30
0.0
 11
109.6195154899772
 21
27.94217685609543
 31
0.0
  0
LINE
  5
1341
330
133D
100
AcDbEntity
  8
0
 62
     0
370
    -2
100
AcDbLine
 10
111.8745154899772
 20
26.88654478857485
 30
0.0
 11
111.8745154899772
 21
27.94217685609543
 31
0.0
  0
LINE
  5
1342
330
133D
100
AcDbEntity
  8
0
 62
     0
370
    -2
100
AcDbLine
 10
109.7995154899772
 20
27.76217685609543
 30
0.0
 11
110.2826154899772
 21
27.76217685609543
 31
0.0
  0
LINE
  5
1343
330
133D
100
AcDbEntity
  8
0
 62
     0
370
    -2
100
AcDbLine
 10
111.6945154899772
 20
27.76217685609543
 30
0.0
 11
111.2114154899772
 21
27.76217685609543
 31
0.0
  0
SOLID
  5
1344
330
133D
100
AcDbEntity
  8
0
 62
     0
100
AcDbTrace
 10
109.7995154899772
 20
27.79217685609543
 30
0.0
 11
109.7995154899772
 21
27.73217685609543
 31
0.0
 12
109.6195154899772
 22
27.76217685609543
 32
0.0
 13
109.6195154899772
 23
27.76217685609543
 33
0.0
  0
SOLID
  5
1345
330
133D
100
AcDbEntity
  8
0
 62
     0
100
AcDbTrace
 10
111.6945154899772
 20
27.73217685609543
 30
0.0
 11
111.6945154899772
 21
27.79217685609543
 31
0.0
 12
111.8745154899772
 22
27.76217685609543
 32
0.0
 13
111.8745154899772
 23
27.76217685609543
 33
0.0
  0
MTEXT
  5
1346
330
133D
100
AcDbEntity
  8
0
 62
     0
100
AcDbMText
 10
110.7470154899772
 20
27.76217685609543
 30
0.0
 40
0.18
 41
0.0
 71
     5
 72
     1
  1
\A1;2.2550
 73
     1
 44
1.0
  0
POINT
  5
1347
330
133D
100
AcDbEntity
  8
Defpoints
 62
     0
100
AcDbPoint
 10
109.6195154899772
 20
26.82404478857485
 30
0.0
  0
POINT
  5
1348
330
133D
100
AcDbEntity
  8
Defpoints
 62
     0
100
AcDbPoint
 10
111.8745154899772
 20
26.82404478857485
 30
0.0
  0
POINT
  5
1349
330
133D
100
AcDbEntity
  8
Defpoints
 62
     0
100
AcDbPoint
 10
111.8745154899772
 20
27.76217685609543
 30
0.0
  0
ENDBLK
  5
133F
330
133D
100
AcDbEntity
  8
0
100
AcDbBlockEnd
  0
BLOCK
  5
13FE
330
13FD
100
AcDbEntity
  8
0
100
AcDbBlockBegin
  2
*D4
 70
     1
 10
0.0
 20
0.0
 30
0.0
  3
*D4
  1

  0
LINE
  5
1400
330
13FD
100
AcDbEntity
  8
0
 62
     0
370
    -2
100
AcDbLine
 10
120.5733900993543
 20
14.8582797551743
 30
0.0
 11
120.5733900993543
 21
15.69644393823003
 31
0.0
  0
LINE
  5
1401
330
13FD
100
AcDbEntity
  8
0
 62
     0
370
    -2
100
AcDbLine
 10
118.9483323490763
 20
14.8582797551743
 30
0.0
 11
118.9483323490763
 21
15.69644393823003
 31
0.0
  0
LINE
  5
1402
330
13FD
100
AcDbEntity
  8
0
 62
     0
370
    -2
100
AcDbLine
 10
120.3933900993543
 20
15.51644393823003
 30
0.0
 11
120.1982612242153
 21
15.51644393823003
 31
0.0
  0
LINE
  5
1403
330
13FD
100
AcDbEntity
  8
0
 62
     0
370
    -2
100
AcDbLine
 10
119.1283323490763
 20
15.51644393823003
 30
0.0
 11
119.3234612242153
 21
15.51644393823003
 31
0.0
  0
SOLID
  5
1404
330
13FD
100
AcDbEntity
  8
0
 62
     0
100
AcDbTrace
 10
120.3933900993543
 20
15.48644393823003
 30
0.0
 11
120.3933900993543
 21
15.54644393823003
 31
0.0
 12
120.5733900993543
 22
15.51644393823003
 32
0.0
 13
120.5733900993543
 23
15.51644393823003
 33
0.0
  0
SOLID
  5
1405
330
13FD
100
AcDbEntity
  8
0
 62
     0
100
AcDbTrace
 10
119.1283323490763
 20
15.54644393823003
 30
0.0
 11
119.1283323490763
 21
15.48644393823003
 31
0.0
 12
118.9483323490763
 22
15.51644393823003
 32
0.0
 13
118.9483323490763
 23
15.51644393823003
 33
0.0
  0
MTEXT
  5
1406
330
13FD
100
AcDbEntity
  8
0
 62
     0
100
AcDbMText
 10
119.7608612242153
 20
15.51644393823003
 30
0.0
 40
0.18
 41
0.0
 71
     5
 72
     1
  1
\A1;1.6251
 73
     1
 44
1.0
  0
POINT
  5
1407
330
13FD
100
AcDbEntity
  8
Defpoints
 62
     0
100
AcDbPoint
 10
120.5733900993543
 20
14.7957797551743
 30
0.0
  0
POINT
  5
1408
330
13FD
100
AcDbEntity
  8
Defpoints
 62
     0
100
AcDbPoint
 10
118.9483323490763
 20
14.7957797551743
 30
0.0
  0
POINT
  5
1409
330
13FD
100
AcDbEntity
  8
Defpoints
 62
     0
100
AcDbPoint
 10
118.9483323490763
 20
15.51644393823003
 30
0.0
  0
ENDBLK
  5
13FF
330
13FD
100
AcDbEntity
  8
0
100
AcDbBlockEnd
  0
BLOCK
  5
153A
330
1539
100
AcDbEntity
  8
0
100
AcDbBlockBegin
  2
*D5
 70
     1
 10
0.0
 20
0.0
 30
0.0
  3
*D5
  1

  0
LINE
  5
153C
330
1539
100
AcDbEntity
  8
Layer2
 62
     0
370
    -2
100
AcDbLine
 10
126.8880655364339
 20
14.7957797551743
 30
0.0
 11
131.0666511872784
 21
14.7957797551743
 31
0.0
  0
LINE
  5
153D
330
1539
100
AcDbEntity
  8
Layer2
 62
     0
370
    -2
100
AcDbLine
 10
126.6107124616184
 20
21.50695546182576
 30
0.0
 11
131.0666511872784
 21
21.50695546182576
 31
0.0
  0
LINE
  5
153E
330
1539
100
AcDbEntity
  8
Layer2
 62
     0
370
    -2
100
AcDbLine
 10
130.8866511872784
 20
14.9757797551743
 30
0.0
 11
130.8866511872784
 21
17.96947760850004
 31
0.0
  0
LINE
  5
153F
330
1539
100
AcDbEntity
  8
Layer2
 62
     0
370
    -2
100
AcDbLine
 10
130.8866511872784
 20
21.32695546182577
 30
0.0
 11
130.8866511872784
 21
18.33325760850003
 31
0.0
  0
SOLID
  5
1540
330
1539
100
AcDbEntity
  8
Layer2
 62
     0
100
AcDbTrace
 10
130.8566511872784
 20
14.9757797551743
 30
0.0
 11
130.9166511872784
 21
14.9757797551743
 31
0.0
 12
130.8866511872784
 22
14.7957797551743
 32
0.0
 13
130.8866511872784
 23
14.7957797551743
 33
0.0
  0
SOLID
  5
1541
330
1539
100
AcDbEntity
  8
Layer2
 62
     0
100
AcDbTrace
 10
130.9166511872784
 20
21.32695546182577
 30
0.0
 11
130.8566511872784
 21
21.32695546182577
 31
0.0
 12
130.8866511872784
 22
21.50695546182576
 32
0.0
 13
130.8866511872784
 23
21.50695546182576
 33
0.0
  0
MTEXT
  5
1542
330
1539
100
AcDbEntity
  8
Layer2
 62
     0
100
AcDbMText
 10
130.8866511872784
 20
18.15136760850003
 30
0.0
 40
0.18
 41
0.0
 71
     5
 72
     1
  1
\A1;6.7112
 73
     1
 44
1.0
  0
POINT
  5
1543
330
1539
100
AcDbEntity
  8
Defpoints
 62
     0
100
AcDbPoint
 10
126.8255655364339
 20
14.7957797551743
 30
0.0
  0
POINT
  5
1544
330
1539
100
AcDbEntity
  8
Defpoints
 62
     0
100
AcDbPoint
 10
126.5482124616184
 20
21.50695546182576
 30
0.0
  0
POINT
  5
1545
330
1539
100
AcDbEntity
  8
Defpoints
 62
     0
100
AcDbPoint
 10
130.8866511872784
 20
21.50695546182576
 30
0.0
  0
ENDBLK
  5
153B
330
1539
100
AcDbEntity
  8
0
100
AcDbBlockEnd
  0
BLOCK
  5
155C
330
155B
100
AcDbEntity
  8
0
100
AcDbBlockBegin
  2
*D6
 70
     1
 10
0.0
 20
0.0
 30
0.0
  3
*D6
  1

  0
LINE
  5
155E
330
155B
100
AcDbEntity
  8
Layer2
 62
     0
370
    -2
100
AcDbLine
 10
120.8507438099528
 20
21.56945546182576
 30
0.0
 11
120.8507438099528
 21
22.92879826906156
 31
0.0
  0
LINE
  5
155F
330
155B
100
AcDbEntity
  8
Layer2
 62
     0
370
    -2
100
AcDbLine
 10
120.5733900993543
 20
14.8582797551743
 30
0.0
 11
120.5733900993543
 21
22.92879826906156
 31
0.0
  0
LINE
  5
1560
330
155B
100
AcDbEntity
  8
Layer2
 62
     0
370
    -2
100
AcDbLine
 10
120.8507438099528
 20
22.74879826906156
 30
0.0
 11
120.2133900993543
 21
22.74879826906156
 31
0.0
  0
LINE
  5
1561
330
155B
100
AcDbEntity
  8
Layer2
 62
     0
370
    -2
100
AcDbLine
 10
121.0307438099528
 20
22.74879826906156
 30
0.0
 11
121.2107438099528
 21
22.74879826906156
 31
0.0
  0
SOLID
  5
1562
330
155B
100
AcDbEntity
  8
Layer2
 62
     0
100
AcDbTrace
 10
121.0307438099528
 20
22.77879826906156
 30
0.0
 11
121.0307438099528
 21
22.71879826906155
 31
0.0
 12
120.8507438099528
 22
22.74879826906156
 32
0.0
 13
120.8507438099528
 23
22.74879826906156
 33
0.0
  0
SOLID
  5
1563
330
155B
100
AcDbEntity
  8
Layer2
 62
     0
100
AcDbTrace
 10
120.3933900993543
 20
22.71879826906155
 30
0.0
 11
120.3933900993543
 21
22.77879826906156
 31
0.0
 12
120.5733900993543
 22
22.74879826906156
 32
0.0
 13
120.5733900993543
 23
22.74879826906156
 33
0.0
  0
MTEXT
  5
1564
330
155B
100
AcDbEntity
  8
Layer2
 62
     0
100
AcDbMText
 10
119.7505200993543
 20
22.74879826906156
 30
0.0
 40
0.18
 41
0.0
 71
     5
 72
     1
  1
\A1;0.2774
 73
     1
 44
1.0
  0
POINT
  5
1565
330
155B
100
AcDbEntity
  8
Defpoints
 62
     0
100
AcDbPoint
 10
120.8507438099528
 20
21.50695546182576
 30
0.0
  0
POINT
  5
1566
330
155B
100
AcDbEntity
  8
Defpoints
 62
     0
100
AcDbPoint
 10
120.5733900993543
 20
14.7957797551743
 30
0.0
  0
POINT
  5
1567
330
155B
100
AcDbEntity
  8
Defpoints
 62
     0
100
AcDbPoint
 10
120.5733900993543
 20
22.74879826906156
 30
0.0
  0
ENDBLK
  5
155D
330
155B
100
AcDbEntity
  8
0
100
AcDbBlockEnd
  0
BLOCK
  5
2066
330
2065
100
AcDbEntity
  8
0
100
AcDbBlockBegin
  2
*D7
 70
     1
 10
0.0
 20
0.0
 30
0.0
  3
*D7
  1

  0
LINE
  5
2068
330
2065
100
AcDbEntity
  8
0
 62
     0
370
    -2
100
AcDbLine
 10
85.60978117384761
 20
9.953943626486925
 30
0.0
 11
87.97006989995666
 21
9.953943626486925
 31
0.0
  0
LINE
  5
2069
330
2065
100
AcDbEntity
  8
0
 62
     0
370
    -2
100
AcDbLine
 10
85.63611008270875
 20
15.70394362648693
 30
0.0
 11
87.97006989995666
 21
15.70394362648693
 31
0.0
  0
LINE
  5
206A
330
2065
100
AcDbEntity
  8
0
 62
     0
370
    -2
100
AcDbLine
 10
87.79006989995665
 20
10.13394362648692
 30
0.0
 11
87.79006989995665
 21
12.64705362648693
 31
0.0
  0
LINE
  5
206B
330
2065
100
AcDbEntity
  8
0
 62
     0
370
    -2
100
AcDbLine
 10
87.79006989995665
 20
15.52394362648693
 30
0.0
 11
87.79006989995665
 21
13.01083362648693
 31
0.0
  0
SOLID
  5
206C
330
2065
100
AcDbEntity
  8
0
 62
     0
100
AcDbTrace
 10
87.76006989995665
 20
10.13394362648692
 30
0.0
 11
87.82006989995665
 21
10.13394362648692
 31
0.0
 12
87.79006989995665
 22
9.953943626486925
 32
0.0
 13
87.79006989995665
 23
9.953943626486925
 33
0.0
  0
SOLID
  5
206D
330
2065
100
AcDbEntity
  8
0
 62
     0
100
AcDbTrace
 10
87.82006989995665
 20
15.52394362648693
 30
0.0
 11
87.76006989995665
 21
15.52394362648693
 31
0.0
 12
87.79006989995665
 22
15.70394362648693
 32
0.0
 13
87.79006989995665
 23
15.70394362648693
 33
0.0
  0
MTEXT
  5
206E
330
2065
100
AcDbEntity
  8
0
 62
     0
100
AcDbMText
 10
87.79006989995665
 20
12.82894362648693
 30
0.0
 40
0.18
 41
0.0
 71
     5
 72
     1
  1
\A1;5.7500
 73
     1
 44
1.0
  0
POINT
  5
206F
330
2065
100
AcDbEntity
  8
Defpoints
 62
     0
100
AcDbPoint
 10
85.54728117384761
 20
9.953943626486925
 30
0.0
  0
POINT
  5
2070
330
2065
100
AcDbEntity
  8
Defpoints
 62
     0
100
AcDbPoint
 10
85.57361008270875
 20
15.70394362648693
 30
0.0
  0
POINT
  5
2071
330
2065
100
AcDbEntity
  8
Defpoints
 62
     0
100
AcDbPoint
 10
87.79006989995665
 20
15.70394362648693
 30
0.0
  0
ENDBLK
  5
2067
330
2065
100
AcDbEntity
  8
0
100
AcDbBlockEnd
  0
BLOCK
  5
20C4
330
20C3
100
AcDbEntity
  8
0
100
AcDbBlockBegin
  2
*D8
 70
     1
 10
0.0
 20
0.0
 30
0.0
  3
*D8
  1

  0
LINE
  5
20C6
330
20C3
100
AcDbEntity
  8
0
 62
     0
370
    -2
100
AcDbLine
 10
89.00482471955792
 20
6.374506771714536
 30
0.0
 11
89.37730745364564
 21
6.374506771714536
 31
0.0
  0
LINE
  5
20C7
330
20C3
100
AcDbEntity
  8
0
 62
     0
370
    -2
100
AcDbLine
 10
89.00482471955792
 20
7.794479509344725
 30
0.0
 11
89.37730745364564
 21
7.794479509344725
 31
0.0
  0
LINE
  5
20C8
330
20C3
100
AcDbEntity
  8
0
 62
     0
370
    -2
100
AcDbLine
 10
89.19730745364564
 20
6.554506771714536
 30
0.0
 11
89.19730745364564
 21
6.902603140529631
 31
0.0
  0
LINE
  5
20C9
330
20C3
100
AcDbEntity
  8
0
 62
     0
370
    -2
100
AcDbLine
 10
89.19730745364564
 20
7.614479509344726
 30
0.0
 11
89.19730745364564
 21
7.266383140529631
 31
0.0
  0
SOLID
  5
20CA
330
20C3
100
AcDbEntity
  8
0
 62
     0
100
AcDbTrace
 10
89.16730745364563
 20
6.554506771714536
 30
0.0
 11
89.22730745364564
 21
6.554506771714536
 31
0.0
 12
89.19730745364564
 22
6.374506771714536
 32
0.0
 13
89.19730745364564
 23
6.374506771714536
 33
0.0
  0
SOLID
  5
20CB
330
20C3
100
AcDbEntity
  8
0
 62
     0
100
AcDbTrace
 10
89.22730745364564
 20
7.614479509344726
 30
0.0
 11
89.16730745364563
 21
7.614479509344726
 31
0.0
 12
89.19730745364564
 22
7.794479509344725
 32
0.0
 13
89.19730745364564
 23
7.794479509344725
 33
0.0
  0
MTEXT
  5
20CC
330
20C3
100
AcDbEntity
  8
0
 62
     0
100
AcDbMText
 10
89.19730745364564
 20
7.084493140529631
 30
0.0
 40
0.18
 41
0.0
 71
     5
 72
     1
  1
\A1;1.4200
 73
     1
 44
1.0
  0
POINT
  5
20CD
330
20C3
100
AcDbEntity
  8
Defpoints
 62
     0
100
AcDbPoint
 10
88.94232471955792
 20
6.374506771714536
 30
0.0
  0
POINT
  5
20CE
330
20C3
100
AcDbEntity
  8
Defpoints
 62
     0
100
AcDbPoint
 10
88.94232471955792
 20
7.794479509344725
 30
0.0
  0
POINT
  5
20CF
330
20C3
100
AcDbEntity
  8
Defpoints
 62
     0
100
AcDbPoint
 10
89.19730745364564
 20
7.794479509344725
 30
0.0
  0
ENDBLK
  5
20C5
330
20C3
100
AcDbEntity
  8
0
100
AcDbBlockEnd
  0
ENDSEC
  0
SECTION
  2
ENTITIES
  0
LINE
  5
2F7
330
1F
100
AcDbEntity
  8
Layer2
100
AcDbLine
 10
72.06454705532566
 20
1.00548488008342
 30
0.0
 11
72.06454705532566
 21
31.00548488008342
 31
0.0
  0
LINE
  5
2F8
330
1F
100
AcDbEntity
  8
Layer2
100
AcDbLine
 10
72.06454705532566
 20
31.00548488008342
 30
0.0
 11
52.06454705532566
 21
31.00548488008342
 31
0.0
  0
LINE
  5
2F9
330
1F
100
AcDbEntity
  8
Layer2
100
AcDbLine
 10
52.06454705532566
 20
31.00548488008342
 30
0.0
 11
52.06454705532566
 21
1.00548488008342
 31
0.0
  0
LINE
  5
2FA
330
1F
100
AcDbEntity
  8
Layer2
100
AcDbLine
 10
52.06454705532566
 20
1.00548488008342
 30
0.0
 11
72.06454705532566
 21
1.00548488008342
 31
0.0
  0
LINE
  5
2FE
330
1F
100
AcDbEntity
  8
0
100
AcDbLine
 10
62.74972057071081
 20
22.56784176196235
 30
0.0
 11
61.59413307792879
 21
23.62713029701254
 31
0.0
  0
LINE
  5
2FF
330
1F
100
AcDbEntity
  8
0
100
AcDbLine
 10
61.50966749936412
 20
23.65998602948745
 30
0.0
 11
60.78556318795616
 21
23.65998602948745
 31
0.0
  0
LINE
  5
300
330
1F
100
AcDbEntity
  8
0
100
AcDbLine
 10
67.85507170999148
 20
22.53498602948745
 30
0.0
 11
62.83418614927548
 21
22.53498602948745
 31
0.0
  0
LINE
  5
301
330
1F
100
AcDbEntity
  8
0
100
AcDbLine
 10
60.06145887654819
 20
23.65998602948745
 30
0.0
 11
60.67973654862882
 21
23.65998602948745
 31
0.0
  0
LINE
  5
302
330
1F
100
AcDbEntity
  8
0
100
AcDbLine
 10
58.82140580520151
 20
22.56784176196235
 30
0.0
 11
59.97699329798353
 21
23.62713029701254
 31
0.0
  0
LINE
  5
303
330
1F
100
AcDbEntity
  8
0
100
AcDbLine
 10
53.70269785389137
 20
22.53498602948745
 30
0.0
 11
58.73694022663683
 21
22.53498602948745
 31
0.0
  0
LINE
  5
304
330
1F
100
AcDbEntity
  8
0
100
AcDbLine
 10
60.78556318795616
 20
28.28498602948745
 30
0.0
 11
55.01103628142005
 21
28.28498602948745
 31
0.0
  0
LINE
  5
305
330
1F
100
AcDbEntity
  8
0
100
AcDbLine
 10
54.33850589880412
 20
27.87065661686311
 30
0.0
 11
53.4360271265377
 21
22.68140367633132
 31
0.0
  0
ARC
  5
306
330
1F
100
AcDbEntity
  8
0
100
AcDbCircle
 10
54.83111177621392
 20
27.78498602948745
 30
0.0
 40
0.5000000000000002
100
AcDbArc
 50
90.0
 51
170.1341930569115
  0
LINE
  5
307
330
1F
100
AcDbEntity
  8
0
100
AcDbLine
 10
60.78556318795616
 20
28.28498602948745
 30
0.0
 11
66.48855563074225
 21
28.28498602948745
 31
0.0
  0
LINE
  5
308
330
1F
100
AcDbEntity
  8
0
100
AcDbLine
 10
67.23262047710824
 20
27.87065661686311
 30
0.0
 11
68.13509924937462
 21
22.68140367633132
 31
0.0
  0
ARC
  5
309
330
1F
100
AcDbEntity
  8
0
100
AcDbCircle
 10
66.74001459969841
 20
27.78498602948745
 30
0.0
 40
0.5000000000000002
100
AcDbArc
 50
9.865806943086948
 51
90.0
  0
LINE
  5
30A
330
1F
100
AcDbEntity
  8
0
100
AcDbLine
 10
61.01411243325562
 20
26.28957635877849
 30
0.0
 11
61.19868782779618
 21
26.27704943855882
 31
0.0
  0
LINE
  5
30B
330
1F
100
AcDbEntity
  8
0
100
AcDbLine
 10
61.08182551552393
 20
27.287281194133
 30
0.0
 11
61.26640091006455
 21
27.27475427391333
 31
0.0
  0
LINE
  5
30C
330
1F
100
AcDbEntity
  8
0
100
AcDbLine
 10
61.26640091006455
 20
27.27475427391333
 30
0.0
 11
61.19868782779618
 21
26.27704943855882
 31
0.0
  0
LINE
  5
30D
330
1F
100
AcDbEntity
  8
0
100
AcDbLine
 10
61.08182551552393
 20
27.287281194133
 30
0.0
 11
61.01411243325562
 21
26.28957635877849
 31
0.0
  0
LINE
  5
30E
330
1F
100
AcDbEntity
  8
0
100
AcDbLine
 10
60.5570139426567
 20
26.28957635877849
 30
0.0
 11
60.37243854811614
 21
26.27704943855882
 31
0.0
  0
LINE
  5
30F
330
1F
100
AcDbEntity
  8
0
100
AcDbLine
 10
60.48930086038838
 20
27.287281194133
 30
0.0
 11
60.30472546584782
 21
27.27475427391333
 31
0.0
  0
LINE
  5
310
330
1F
100
AcDbEntity
  8
0
100
AcDbLine
 10
60.30472546584782
 20
27.27475427391333
 30
0.0
 11
60.37243854811614
 21
26.27704943855882
 31
0.0
  0
LINE
  5
311
330
1F
100
AcDbEntity
  8
0
100
AcDbLine
 10
60.48930086038838
 20
27.287281194133
 30
0.0
 11
60.5570139426567
 21
26.28957635877849
 31
0.0
  0
LINE
  5
312
330
1F
100
AcDbEntity
  8
0
100
AcDbLine
 10
60.87806318795619
 20
27.78498602948745
 30
0.0
 11
60.69306318795618
 21
27.78498602948745
 31
0.0
  0
LINE
  5
313
330
1F
100
AcDbEntity
  8
0
100
AcDbLine
 10
60.87806318795619
 20
26.78498602948745
 30
0.0
 11
60.69306318795618
 21
26.78498602948745
 31
0.0
  0
LINE
  5
314
330
1F
100
AcDbEntity
  8
0
100
AcDbLine
 10
60.87806318795619
 20
27.70477360203806
 30
0.0
 11
60.87806318795619
 21
26.78498602948745
 31
0.0
  0
LINE
  5
315
330
1F
100
AcDbEntity
  8
0
100
AcDbLine
 10
60.69306318795618
 20
27.78498602948745
 30
0.0
 11
60.69306318795618
 21
26.78498602948745
 31
0.0
  0
LINE
  5
316
330
1F
100
AcDbEntity
  8
Layer1
100
AcDbLine
 10
67.85621536186923
 20
24.28498602948745
 30
0.0
 11
53.7149110140431
 21
24.28498602948745
 31
0.0
  0
ARC
  5
317
330
1F
100
AcDbEntity
  8
0
100
AcDbCircle
 10
68.01194778002214
 20
22.65998602948745
 30
0.0
 40
0.125
100
AcDbArc
 50
270.0
 51
9.865806943065534
  0
ARC
  5
318
330
1F
100
AcDbEntity
  8
0
100
AcDbCircle
 10
62.83418614927548
 20
22.65998602948745
 30
0.0
 40
0.1250000000000001
100
AcDbArc
 50
227.4895529219958
 51
270.0
  0
ARC
  5
31B
330
1F
100
AcDbEntity
  8
0
100
AcDbCircle
 10
58.73694022663683
 20
22.65998602948745
 30
0.0
 40
0.1249999999999999
100
AcDbArc
 50
270.0
 51
312.5104470780007
  0
ARC
  5
31C
330
1F
100
AcDbEntity
  8
0
100
AcDbCircle
 10
53.55917859589017
 20
22.65998602948745
 30
0.0
 40
0.125
100
AcDbArc
 50
170.1341930569345
 51
270.0
  0
LINE
  5
392
330
1F
100
AcDbEntity
  8
Layer2
100
AcDbLine
 10
50.00636848302487
 20
31.00548488008342
 30
0.0
 11
50.00636848302487
 21
1.00548488008342
 31
0.0
  0
LINE
  5
393
330
1F
100
AcDbEntity
  8
Layer2
100
AcDbLine
 10
50.00636848302487
 20
1.00548488008342
 30
0.0
 11
30.00636848302487
 21
1.00548488008342
 31
0.0
  0
LINE
  5
394
330
1F
100
AcDbEntity
  8
Layer2
100
AcDbLine
 10
30.00636848302487
 20
1.00548488008342
 30
0.0
 11
30.00636848302493
 21
31.00548488008342
 31
0.0
  0
LINE
  5
395
330
1F
100
AcDbEntity
  8
Layer2
100
AcDbLine
 10
30.00636848302493
 20
31.00548488008342
 30
0.0
 11
50.00636848302487
 21
31.00548488008342
 31
0.0
  0
LINE
  5
39A
330
1F
100
AcDbEntity
  8
0
100
AcDbLine
 10
40.09697416778716
 20
8.219300833958519
 30
0.0
 11
38.20612929080944
 21
8.219300833958519
 31
0.0
  0
LINE
  5
39C
330
1F
100
AcDbEntity
  8
Layer1
100
AcDbLine
 10
34.70612929080944
 20
8.03274507211187
 30
0.0
 11
34.70612929080944
 21
4.754399154709338
 31
0.0
  0
LINE
  5
39D
330
1F
100
AcDbEntity
  8
0
100
AcDbLine
 10
31.58892329558712
 20
7.733072227151856
 30
0.0
 11
33.23194851754597
 21
3.300852534982019
 31
0.0
  0
LINE
  5
39E
330
1F
100
AcDbEntity
  8
0
100
AcDbLine
 10
35.97014477266724
 20
3.219300833958519
 30
0.0
 11
33.47819601356633
 21
3.219300833958519
 31
0.0
  0
LINE
  5
39F
330
1F
100
AcDbEntity
  8
0
100
AcDbLine
 10
31.58112929080944
 20
7.90774507211187
 30
0.0
 11
31.58112929080944
 21
7.776520526128357
 31
0.0
  0
LINE
  5
3A0
330
1F
100
AcDbEntity
  8
0
100
AcDbLine
 10
34.70612929080944
 20
8.03274507211187
 30
0.0
 11
31.87080524182261
 21
8.03274507211187
 31
0.0
  0
LINE
  5
3A1
330
1F
100
AcDbEntity
  8
0
100
AcDbLine
 10
40.30373799033272
 20
7.172317528972476
 30
0.0
 11
40.30373799033272
 21
8.219300833958519
 31
0.0
  0
LINE
  5
3A2
330
1F
100
AcDbEntity
  8
0
100
AcDbLine
 10
34.70612929080944
 20
8.219300833958519
 30
0.0
 11
34.70612929080944
 21
8.03274507211187
 31
0.0
  0
LINE
  5
3A3
330
1F
100
AcDbEntity
  8
0
100
AcDbLine
 10
38.20612929080944
 20
8.219300833958519
 30
0.0
 11
38.20612929080944
 21
8.404300833958521
 31
0.0
  0
LINE
  5
3A4
330
1F
100
AcDbEntity
  8
0
100
AcDbLine
 10
37.20612929080944
 20
8.219300833958519
 30
0.0
 11
37.20612929080944
 21
8.404300833958521
 31
0.0
  0
LINE
  5
3A5
330
1F
100
AcDbEntity
  8
0
100
AcDbLine
 10
38.20612929080944
 20
8.404300833958521
 30
0.0
 11
37.20612929080944
 21
8.404300833958521
 31
0.0
  0
LINE
  5
3A6
330
1F
100
AcDbEntity
  8
0
100
AcDbLine
 10
37.04435849415022
 20
8.219300833958519
 30
0.0
 11
34.70612929080944
 21
8.219300833958519
 31
0.0
  0
ARC
  5
3A7
330
1F
100
AcDbEntity
  8
0
100
AcDbCircle
 10
31.70612929080944
 20
7.776520526128357
 30
0.0
 40
0.1250000000000001
100
AcDbArc
 50
180.0
 51
200.3397589275301
  0
ARC
  5
3A8
330
1F
100
AcDbEntity
  8
0
100
AcDbCircle
 10
31.70612929080944
 20
7.90774507211187
 30
0.0
 40
0.1250000000000001
100
AcDbArc
 50
90.0
 51
180.0
  0
ARC
  5
3A9
330
1F
100
AcDbEntity
  8
0
100
AcDbCircle
 10
33.34915451276818
 20
3.344300833958519
 30
0.0
 40
0.1250000000000001
100
AcDbArc
 50
200.3397589275085
 51
270.0
  0
ARC
  5
3AA
330
1F
100
AcDbEntity
  8
0
100
AcDbCircle
 10
36.06801924221118
 20
3.344300833958519
 30
0.0
 40
0.1249999999999997
100
AcDbArc
 50
270.0
 51
313.3601536907604
  0
LINE
  5
3AB
330
1F
100
AcDbEntity
  8
0
100
AcDbLine
 10
34.70612929080944
 20
4.754399154709338
 30
0.0
 11
37.74329646684465
 21
4.754399154709338
 31
0.0
  0
LINE
  5
3AC
330
1F
100
AcDbEntity
  8
0
100
AcDbLine
 10
37.70612929080944
 20
4.719300833958519
 30
0.0
 11
36.15384199831745
 21
3.25341929273957
 31
0.0
  0
LINE
  5
3AD
330
1F
100
AcDbEntity
  8
0
100
AcDbLine
 10
40.30373799033272
 20
7.172317528972476
 30
0.0
 11
37.74329646684465
 21
4.754399154709338
 31
0.0
  0
CIRCLE
  5
3D4
330
1F
100
AcDbEntity
  8
0
100
AcDbCircle
 10
35.70612929080944
 20
5.257263979104087
 30
0.0
 40
0.0532066780073078
  0
CIRCLE
  5
3D5
330
1F
100
AcDbEntity
  8
0
100
AcDbCircle
 10
64.78556318795614
 20
25.28498602948745
 30
0.0
 40
0.0532066780073078
  0
CIRCLE
  5
3D6
330
1F
100
AcDbEntity
  8
0
100
AcDbCircle
 10
56.78556318795616
 20
25.28498602948745
 30
0.0
 40
0.0532066780073078
  0
LINE
  5
3DD
330
1F
100
AcDbEntity
  8
0
100
AcDbLine
 10
34.28963958142158
 20
7.299180878276209
 30
0.0
 11
33.24423061374695
 21
7.299180878276209
 31
0.0
  0
LINE
  5
3DE
330
1F
100
AcDbEntity
  8
0
100
AcDbLine
 10
62.41850402212601
 20
23.04255282855668
 30
0.0
 11
62.41639940993162
 21
23.95499204186759
 31
0.0
  0
LINE
  5
3E8
330
1F
100
AcDbEntity
  8
Layer3
100
AcDbLine
 10
69.2332292012281
 20
23.48067283848153
 30
0.0
 11
68.48103471239497
 21
25.54264212759334
 31
0.0
  0
LINE
  5
3E9
330
1F
100
AcDbEntity
  8
Layer3
100
AcDbLine
 10
68.48103471239497
 20
25.54264212759334
 30
0.0
 11
68.48103471239497
 21
27.85959296175995
 31
0.0
  0
LINE
  5
3EA
330
1F
100
AcDbEntity
  8
Layer3
100
AcDbLine
 10
68.48103471239497
 20
27.85959296175995
 30
0.0
 11
68.6065191484068
 21
27.98507739777174
 31
0.0
  0
LINE
  5
3EB
330
1F
100
AcDbEntity
  8
Layer3
100
AcDbLine
 10
68.6065191484068
 20
27.98507739777174
 30
0.0
 11
69.3234807739067
 21
27.98507739777174
 31
0.0
  0
LINE
  5
3EC
330
1F
100
AcDbEntity
  8
Layer3
100
AcDbLine
 10
69.48285524250447
 20
27.98507739777174
 30
0.0
 11
69.98416871189745
 21
25.63212654688702
 31
0.0
  0
LINE
  5
3ED
330
1F
100
AcDbEntity
  8
Layer3
100
AcDbLine
 10
69.98416871189745
 20
25.63212654688702
 30
0.0
 11
69.98416871189745
 21
23.60928664177423
 31
0.0
  0
LINE
  5
3EE
330
1F
100
AcDbEntity
  8
Layer3
100
AcDbLine
 10
69.98416871189745
 20
23.60928664177423
 30
0.0
 11
69.85555490860476
 21
23.48067283848153
 31
0.0
  0
LINE
  5
3EF
330
1F
100
AcDbEntity
  8
Layer3
100
AcDbLine
 10
69.85555490860476
 20
23.48067283848153
 30
0.0
 11
69.39150918269429
 21
23.48067283848153
 31
0.0
  0
LWPOLYLINE
  5
3F4
330
1F
100
AcDbEntity
  8
Layer3
100
AcDbPolyline
 90
        3
 70
     0
 43
0.0
 10
54.67648898481322
 20
2.332276726286343
 10
54.67648898481322
 20
2.833078744821981
 10
54.48679557025612
 20
2.833078744821981
  0
LINE
  5
3F5
330
1F
100
AcDbEntity
  8
Layer3
100
AcDbLine
 10
54.67648898481322
 20
2.332276726286343
 30
0.0
 11
55.05508196866511
 21
2.332276726286343
 31
0.0
  0
LINE
  5
3F6
330
1F
100
AcDbEntity
  8
Layer3
100
AcDbLine
 10
55.05508196866511
 20
2.332276726286343
 30
0.0
 11
55.05508196866511
 21
3.370919949085751
 31
0.0
  0
LINE
  5
3F7
330
1F
100
AcDbEntity
  8
Layer3
100
AcDbLine
 10
54.48679557025601
 20
2.332276726286343
 30
0.0
 11
54.10820258640412
 21
2.332276726286343
 31
0.0
  0
LINE
  5
3F8
330
1F
100
AcDbEntity
  8
Layer3
100
AcDbLine
 10
54.10820258640412
 20
2.461865385476576
 30
0.0
 11
54.10820258640412
 21
3.445762518106667
 31
0.0
  0
LINE
  5
3F9
330
1F
100
AcDbEntity
  8
Layer3
100
AcDbLine
 10
54.10820258640412
 20
3.445762518106667
 30
0.0
 11
55.05508196866511
 21
3.445762518106667
 31
0.0
  0
LINE
  5
3FA
330
1F
100
AcDbEntity
  8
Layer3
100
AcDbLine
 10
54.48679557025612
 20
2.833078744821981
 30
0.0
 11
54.48679557025601
 21
2.332276726286343
 31
0.0
  0
LINE
  5
3FB
330
1F
100
AcDbEntity
  8
Layer3
100
AcDbLine
 10
55.97244835743489
 20
2.332276726286343
 30
0.0
 11
56.35104134128689
 21
2.332276726286343
 31
0.0
  0
LINE
  5
3FC
330
1F
100
AcDbEntity
  8
Layer3
100
AcDbLine
 10
56.35104134128689
 20
2.332276726286343
 30
0.0
 11
56.35104134128689
 21
3.370919949085751
 31
0.0
  0
LINE
  5
3FD
330
1F
100
AcDbEntity
  8
Layer3
100
AcDbLine
 10
55.78275494287779
 20
2.332276726286343
 30
0.0
 11
55.40416195902579
 21
2.332276726286343
 31
0.0
  0
LINE
  5
3FE
330
1F
100
AcDbEntity
  8
Layer3
100
AcDbLine
 10
55.40416195902579
 20
2.461865385476576
 30
0.0
 11
55.40416195902579
 21
3.445762518106667
 31
0.0
  0
LINE
  5
3FF
330
1F
100
AcDbEntity
  8
Layer3
100
AcDbLine
 10
55.40416195902579
 20
3.445762518106667
 30
0.0
 11
56.35104134128689
 21
3.445762518106667
 31
0.0
  0
LWPOLYLINE
  5
400
330
1F
100
AcDbEntity
  8
Layer3
100
AcDbPolyline
 90
        3
 70
     0
 43
0.0
 10
55.97244835743489
 20
2.332276726286343
 10
55.97244835743489
 20
2.833078744821981
 10
55.78275494287779
 20
2.833078744821981
  0
LINE
  5
401
330
1F
100
AcDbEntity
  8
Layer3
100
AcDbLine
 10
55.78275494287779
 20
2.833078744821981
 30
0.0
 11
55.78275494287779
 21
2.332276726286343
 31
0.0
  0
LINE
  5
402
330
1F
100
AcDbEntity
  8
Layer3
100
AcDbLine
 10
57.13033189419328
 20
2.332276726286343
 30
0.0
 11
57.50892487804522
 21
2.332276726286343
 31
0.0
  0
LINE
  5
403
330
1F
100
AcDbEntity
  8
Layer3
100
AcDbLine
 10
57.50892487804522
 20
2.332276726286343
 30
0.0
 11
57.50892487804522
 21
3.370919949085751
 31
0.0
  0
LINE
  5
404
330
1F
100
AcDbEntity
  8
Layer3
100
AcDbLine
 10
56.94063847963612
 20
2.332276726286343
 30
0.0
 11
56.56204549578418
 21
2.332276726286343
 31
0.0
  0
LINE
  5
405
330
1F
100
AcDbEntity
  8
Layer3
100
AcDbLine
 10
56.56204549578418
 20
2.461865385476576
 30
0.0
 11
56.56204549578418
 21
3.445762518106667
 31
0.0
  0
LINE
  5
406
330
1F
100
AcDbEntity
  8
Layer3
100
AcDbLine
 10
56.56204549578418
 20
3.445762518106667
 30
0.0
 11
57.50892487804522
 21
3.445762518106667
 31
0.0
  0
LWPOLYLINE
  5
407
330
1F
100
AcDbEntity
  8
Layer3
100
AcDbPolyline
 90
        3
 70
     0
 43
0.0
 10
57.13033189419328
 20
2.332276726286343
 10
57.13033189419328
 20
2.833078744821981
 10
56.94063847963618
 20
2.833078744821981
  0
LINE
  5
408
330
1F
100
AcDbEntity
  8
Layer3
100
AcDbLine
 10
56.94063847963618
 20
2.833078744821981
 30
0.0
 11
56.94063847963612
 21
2.332276726286343
 31
0.0
  0
LINE
  5
409
330
1F
100
AcDbEntity
  8
Layer3
100
AcDbLine
 10
58.33794049081253
 20
2.332276726286343
 30
0.0
 11
58.71653347466442
 21
2.332276726286343
 31
0.0
  0
LINE
  5
40A
330
1F
100
AcDbEntity
  8
Layer3
100
AcDbLine
 10
58.71653347466442
 20
2.332276726286343
 30
0.0
 11
58.71653347466442
 21
3.370919949085751
 31
0.0
  0
LINE
  5
40B
330
1F
100
AcDbEntity
  8
Layer3
100
AcDbLine
 10
58.14824707625532
 20
2.332276726286343
 30
0.0
 11
57.76965409240343
 21
2.332276726286343
 31
0.0
  0
LINE
  5
40C
330
1F
100
AcDbEntity
  8
Layer3
100
AcDbLine
 10
57.76965409240343
 20
2.461865385476576
 30
0.0
 11
57.76965409240343
 21
3.445762518106667
 31
0.0
  0
LINE
  5
40D
330
1F
100
AcDbEntity
  8
Layer3
100
AcDbLine
 10
57.76965409240343
 20
3.445762518106667
 30
0.0
 11
58.71653347466442
 21
3.445762518106667
 31
0.0
  0
LWPOLYLINE
  5
40E
330
1F
100
AcDbEntity
  8
Layer3
100
AcDbPolyline
 90
        3
 70
     0
 43
0.0
 10
58.33794049081253
 20
2.332276726286343
 10
58.33794049081253
 20
2.833078744821981
 10
58.14824707625543
 20
2.833078744821981
  0
LINE
  5
40F
330
1F
100
AcDbEntity
  8
Layer3
100
AcDbLine
 10
58.14824707625543
 20
2.833078744821981
 30
0.0
 11
58.14824707625532
 21
2.332276726286343
 31
0.0
  0
LINE
  5
410
330
1F
100
AcDbEntity
  8
Layer3
100
AcDbLine
 10
59.67285162279781
 20
2.332276726286343
 30
0.0
 11
60.0514446066497
 21
2.332276726286343
 31
0.0
  0
LINE
  5
411
330
1F
100
AcDbEntity
  8
Layer3
100
AcDbLine
 10
60.0514446066497
 20
2.332276726286343
 30
0.0
 11
60.0514446066497
 21
3.370919949085751
 31
0.0
  0
LINE
  5
412
330
1F
100
AcDbEntity
  8
Layer3
100
AcDbLine
 10
59.4831582082406
 20
2.332276726286343
 30
0.0
 11
59.10456522438871
 21
2.332276726286343
 31
0.0
  0
LINE
  5
413
330
1F
100
AcDbEntity
  8
Layer3
100
AcDbLine
 10
59.10456522438871
 20
2.461865385476576
 30
0.0
 11
59.10456522438871
 21
3.445762518106667
 31
0.0
  0
LINE
  5
414
330
1F
100
AcDbEntity
  8
Layer3
100
AcDbLine
 10
59.10456522438871
 20
3.445762518106667
 30
0.0
 11
60.0514446066497
 21
3.445762518106667
 31
0.0
  0
LWPOLYLINE
  5
415
330
1F
100
AcDbEntity
  8
Layer3
100
AcDbPolyline
 90
        3
 70
     0
 43
0.0
 10
59.67285162279781
 20
2.332276726286343
 10
59.67285162279781
 20
2.833078744821981
 10
59.48315820824071
 20
2.833078744821981
  0
LINE
  5
416
330
1F
100
AcDbEntity
  8
Layer3
100
AcDbLine
 10
59.48315820824071
 20
2.833078744821981
 30
0.0
 11
59.4831582082406
 21
2.332276726286343
 31
0.0
  0
LWPOLYLINE
  5
417
330
1F
100
AcDbEntity
  8
Layer3
100
AcDbPolyline
 90
        3
 70
     0
 43
0.0
 10
32.77782642563024
 20
27.65429017951017
 10
32.77782642563024
 20
28.15509219804581
 10
32.58813301107314
 20
28.15509219804581
  0
LINE
  5
418
330
1F
100
AcDbEntity
  8
Layer3
100
AcDbLine
 10
32.77782642563024
 20
27.65429017951017
 30
0.0
 11
33.15641940948213
 21
27.65429017951017
 31
0.0
  0
LINE
  5
419
330
1F
100
AcDbEntity
  8
Layer3
100
AcDbLine
 10
33.15641940948213
 20
27.65429017951017
 30
0.0
 11
33.15641940948213
 21
28.69293340230958
 31
0.0
  0
LINE
  5
41A
330
1F
100
AcDbEntity
  8
Layer3
100
AcDbLine
 10
32.58813301107303
 20
27.65429017951017
 30
0.0
 11
32.20954002722114
 21
27.65429017951017
 31
0.0
  0
LINE
  5
41B
330
1F
100
AcDbEntity
  8
Layer3
100
AcDbLine
 10
32.20954002722114
 20
27.7838788387004
 30
0.0
 11
32.20954002722114
 21
28.7677759713305
 31
0.0
  0
LINE
  5
41C
330
1F
100
AcDbEntity
  8
Layer3
100
AcDbLine
 10
32.20954002722114
 20
28.7677759713305
 30
0.0
 11
33.15641940948213
 21
28.7677759713305
 31
0.0
  0
LINE
  5
41D
330
1F
100
AcDbEntity
  8
Layer3
100
AcDbLine
 10
32.58813301107314
 20
28.15509219804581
 30
0.0
 11
32.58813301107303
 21
27.65429017951017
 31
0.0
  0
LINE
  5
41E
330
1F
100
AcDbEntity
  8
Layer3
100
AcDbLine
 10
34.0737857982519
 20
27.65429017951017
 30
0.0
 11
34.45237878210391
 21
27.65429017951017
 31
0.0
  0
LINE
  5
41F
330
1F
100
AcDbEntity
  8
Layer3
100
AcDbLine
 10
34.45237878210391
 20
27.65429017951017
 30
0.0
 11
34.45237878210391
 21
28.69293340230958
 31
0.0
  0
LINE
  5
420
330
1F
100
AcDbEntity
  8
Layer3
100
AcDbLine
 10
33.88409238369481
 20
27.65429017951017
 30
0.0
 11
33.5054993998428
 21
27.65429017951017
 31
0.0
  0
LINE
  5
421
330
1F
100
AcDbEntity
  8
Layer3
100
AcDbLine
 10
33.5054993998428
 20
27.7838788387004
 30
0.0
 11
33.5054993998428
 21
28.7677759713305
 31
0.0
  0
LINE
  5
422
330
1F
100
AcDbEntity
  8
Layer3
100
AcDbLine
 10
33.5054993998428
 20
28.7677759713305
 30
0.0
 11
34.45237878210391
 21
28.7677759713305
 31
0.0
  0
LWPOLYLINE
  5
423
330
1F
100
AcDbEntity
  8
Layer3
100
AcDbPolyline
 90
        3
 70
     0
 43
0.0
 10
34.0737857982519
 20
27.65429017951017
 10
34.0737857982519
 20
28.15509219804581
 10
33.88409238369481
 20
28.15509219804581
  0
LINE
  5
424
330
1F
100
AcDbEntity
  8
Layer3
100
AcDbLine
 10
33.88409238369481
 20
28.15509219804581
 30
0.0
 11
33.88409238369481
 21
27.65429017951017
 31
0.0
  0
LINE
  5
425
330
1F
100
AcDbEntity
  8
Layer3
100
AcDbLine
 10
35.2316693350103
 20
27.65429017951017
 30
0.0
 11
35.61026231886224
 21
27.65429017951017
 31
0.0
  0
LINE
  5
426
330
1F
100
AcDbEntity
  8
Layer3
100
AcDbLine
 10
35.61026231886224
 20
27.65429017951017
 30
0.0
 11
35.61026231886224
 21
28.69293340230958
 31
0.0
  0
LINE
  5
427
330
1F
100
AcDbEntity
  8
Layer3
100
AcDbLine
 10
35.04197592045314
 20
27.65429017951017
 30
0.0
 11
34.6633829366012
 21
27.65429017951017
 31
0.0
  0
LINE
  5
428
330
1F
100
AcDbEntity
  8
Layer3
100
AcDbLine
 10
34.6633829366012
 20
27.7838788387004
 30
0.0
 11
34.6633829366012
 21
28.7677759713305
 31
0.0
  0
LINE
  5
429
330
1F
100
AcDbEntity
  8
Layer3
100
AcDbLine
 10
34.6633829366012
 20
28.7677759713305
 30
0.0
 11
35.61026231886224
 21
28.7677759713305
 31
0.0
  0
LWPOLYLINE
  5
42A
330
1F
100
AcDbEntity
  8
Layer3
100
AcDbPolyline
 90
        3
 70
     0
 43
0.0
 10
35.2316693350103
 20
27.65429017951017
 10
35.2316693350103
 20
28.15509219804581
 10
35.0419759204532
 20
28.15509219804581
  0
LINE
  5
42B
330
1F
100
AcDbEntity
  8
Layer3
100
AcDbLine
 10
35.0419759204532
 20
28.15509219804581
 30
0.0
 11
35.04197592045314
 21
27.65429017951017
 31
0.0
  0
LINE
  5
42C
330
1F
100
AcDbEntity
  8
Layer3
100
AcDbLine
 10
36.43927793162955
 20
27.65429017951017
 30
0.0
 11
36.81787091548144
 21
27.65429017951017
 31
0.0
  0
LINE
  5
42D
330
1F
100
AcDbEntity
  8
Layer3
100
AcDbLine
 10
36.81787091548144
 20
27.65429017951017
 30
0.0
 11
36.81787091548144
 21
28.69293340230958
 31
0.0
  0
LINE
  5
42E
330
1F
100
AcDbEntity
  8
Layer3
100
AcDbLine
 10
36.24958451707234
 20
27.65429017951017
 30
0.0
 11
35.87099153322045
 21
27.65429017951017
 31
0.0
  0
LINE
  5
42F
330
1F
100
AcDbEntity
  8
Layer3
100
AcDbLine
 10
35.87099153322045
 20
27.7838788387004
 30
0.0
 11
35.87099153322045
 21
28.7677759713305
 31
0.0
  0
LINE
  5
430
330
1F
100
AcDbEntity
  8
Layer3
100
AcDbLine
 10
35.87099153322045
 20
28.7677759713305
 30
0.0
 11
36.81787091548144
 21
28.7677759713305
 31
0.0
  0
LWPOLYLINE
  5
431
330
1F
100
AcDbEntity
  8
Layer3
100
AcDbPolyline
 90
        3
 70
     0
 43
0.0
 10
36.43927793162955
 20
27.65429017951017
 10
36.43927793162955
 20
28.15509219804581
 10
36.24958451707245
 20
28.15509219804581
  0
LINE
  5
432
330
1F
100
AcDbEntity
  8
Layer3
100
AcDbLine
 10
36.24958451707245
 20
28.15509219804581
 30
0.0
 11
36.24958451707234
 21
27.65429017951017
 31
0.0
  0
LINE
  5
433
330
1F
100
AcDbEntity
  8
Layer3
100
AcDbLine
 10
37.77418906361483
 20
27.65429017951017
 30
0.0
 11
38.15278204746672
 21
27.65429017951017
 31
0.0
  0
LINE
  5
434
330
1F
100
AcDbEntity
  8
Layer3
100
AcDbLine
 10
38.15278204746672
 20
27.65429017951017
 30
0.0
 11
38.15278204746672
 21
28.69293340230958
 31
0.0
  0
LINE
  5
435
330
1F
100
AcDbEntity
  8
Layer3
100
AcDbLine
 10
37.58449564905762
 20
27.65429017951017
 30
0.0
 11
37.20590266520573
 21
27.65429017951017
 31
0.0
  0
LINE
  5
436
330
1F
100
AcDbEntity
  8
Layer3
100
AcDbLine
 10
37.20590266520573
 20
27.7838788387004
 30
0.0
 11
37.20590266520573
 21
28.7677759713305
 31
0.0
  0
LINE
  5
437
330
1F
100
AcDbEntity
  8
Layer3
100
AcDbLine
 10
37.20590266520573
 20
28.7677759713305
 30
0.0
 11
38.15278204746672
 21
28.7677759713305
 31
0.0
  0
LWPOLYLINE
  5
438
330
1F
100
AcDbEntity
  8
Layer3
100
AcDbPolyline
 90
        3
 70
     0
 43
0.0
 10
37.77418906361483
 20
27.65429017951017
 10
37.77418906361483
 20
28.15509219804581
 10
37.58449564905773
 20
28.15509219804581
  0
LINE
  5
439
330
1F
100
AcDbEntity
  8
Layer3
100
AcDbLine
 10
37.58449564905773
 20
28.15509219804581
 30
0.0
 11
37.58449564905762
 21
27.65429017951017
 31
0.0
  0
LINE
  5
892
330
1F
100
AcDbEntity
  8
Layer1
100
AcDbLine
 10
46.71736611514897
 20
11.00252112966244
 30
0.0
 11
46.71736611514897
 21
28.75252112966244
 31
0.0
  0
LINE
  5
893
330
1F
100
AcDbEntity
  8
0
100
AcDbLine
 10
47.69127174519818
 20
28.91217779032625
 30
0.0
 11
39.51147860161573
 21
27.57122809465703
 31
0.0
  0
LINE
  5
894
330
1F
100
AcDbEntity
  8
0
100
AcDbLine
 10
46.71736611514897
 20
11.00252112966244
 30
0.0
 11
48.46736611514898
 21
11.57767011393041
 31
0.0
  0
LINE
  5
895
330
1F
100
AcDbEntity
  8
0
100
AcDbLine
 10
48.46736611514898
 20
11.57767011393041
 30
0.0
 11
48.46736611514898
 21
18.92249524178385
 31
0.0
  0
LINE
  5
896
330
1F
100
AcDbEntity
  8
0
100
AcDbLine
 10
48.46736611514898
 20
19.00252112966244
 30
0.0
 11
47.99931784578437
 21
28.32128544348683
 31
0.0
  0
ARC
  5
897
330
1F
100
AcDbEntity
  8
0
100
AcDbCircle
 10
47.73171550196479
 20
28.66547087404988
 30
0.0
 40
0.25
100
AcDbArc
 50
2.87534624627903
 51
99.30994017497956
  0
LINE
  5
898
330
1F
100
AcDbEntity
  8
0
100
AcDbLine
 10
46.71736611514897
 20
9.502521129662437
 30
0.0
 11
46.71736611514897
 21
11.00252112966244
 31
0.0
  0
LINE
  5
899
330
1F
100
AcDbEntity
  8
Layer2
100
AcDbLine
 10
48.20007095180657
 20
19.00252112966244
 30
0.0
 11
46.96614561291192
 21
19.00252112966244
 31
0.0
  0
LINE
  5
89A
330
1F
100
AcDbEntity
  8
0
100
AcDbLine
 10
47.11696812399109
 20
14.73066616540721
 30
0.0
 11
48.04348826476266
 21
14.73066616540721
 31
0.0
  0
LINE
  5
89B
330
1F
100
AcDbEntity
  8
Layer2
100
AcDbLine
 10
47.11696812399109
 20
22.73066616540721
 30
0.0
 11
48.04348826476266
 21
22.73066616540721
 31
0.0
  0
LINE
  5
89C
330
1F
100
AcDbEntity
  8
0
100
AcDbLine
 10
46.51232553338785
 20
9.502521129662437
 30
0.0
 11
37.15865473909469
 21
9.502521129662437
 31
0.0
  0
LINE
  5
89D
330
1F
100
AcDbEntity
  8
Layer1
100
AcDbLine
 10
39.09236611514896
 20
27.07781426210424
 30
0.0
 11
39.09236611514896
 21
9.502521129662437
 31
0.0
  0
LINE
  5
89E
330
1F
100
AcDbEntity
  8
Layer1
100
AcDbLine
 10
40.71736611514896
 20
27.76891457228542
 30
0.0
 11
40.71736611514896
 21
9.502521129662437
 31
0.0
  0
LINE
  5
89F
330
1F
100
AcDbEntity
  8
Layer1
100
AcDbLine
 10
42.21736611514897
 20
28.01481621162968
 30
0.0
 11
42.21736611514897
 21
9.502521129662437
 31
0.0
  0
LINE
  5
8A0
330
1F
100
AcDbEntity
  8
Layer1
100
AcDbLine
 10
37.46736611514896
 20
27.07781426210424
 30
0.0
 11
37.46736611514896
 21
9.502521129662437
 31
0.0
  0
LINE
  5
8A1
330
1F
100
AcDbEntity
  8
Layer1
100
AcDbLine
 10
35.96736611514896
 20
27.07781426210424
 30
0.0
 11
35.96736611514896
 21
9.502521129662437
 31
0.0
  0
LINE
  5
8A2
330
1F
100
AcDbEntity
  8
Layer2
100
AcDbLine
 10
37.2960735255251
 20
24.00252112966244
 30
0.0
 11
36.27895915138536
 21
24.00252112966244
 31
0.0
  0
LINE
  5
8A3
330
1F
100
AcDbEntity
  8
Layer1
100
AcDbLine
 10
38.27986611514896
 20
9.502521129662437
 30
0.0
 11
38.27986611514896
 21
27.07781426210424
 31
0.0
  0
LINE
  5
8A4
330
1F
100
AcDbEntity
  8
Layer1
100
AcDbLine
 10
39.90486611514896
 20
9.502521129662437
 30
0.0
 11
39.90486611514896
 21
27.63571785097393
 31
0.0
  0
LINE
  5
8A5
330
1F
100
AcDbEntity
  8
0
100
AcDbLine
 10
36.09280788116577
 20
22.3479797685956
 30
0.0
 11
36.09280788116577
 21
22.50252112966244
 31
0.0
  0
LINE
  5
8A6
330
1F
100
AcDbEntity
  8
0
100
AcDbLine
 10
36.09280788116577
 20
22.03008018478054
 30
0.0
 11
36.09280788116577
 21
22.18462154584737
 31
0.0
  0
LINE
  5
8A7
330
1F
100
AcDbEntity
  8
0
100
AcDbLine
 10
36.15725358784469
 20
22.03008018478054
 30
0.0
 11
36.09280788116577
 21
22.03008018478054
 31
0.0
  0
LINE
  5
8A8
330
1F
100
AcDbEntity
  8
0
100
AcDbLine
 10
37.35280788116577
 20
22.03008018478054
 30
0.0
 11
37.28836217448683
 21
22.03008018478054
 31
0.0
  0
LINE
  5
8A9
330
1F
100
AcDbEntity
  8
0
100
AcDbLine
 10
36.15725358784469
 20
22.50252112966244
 30
0.0
 11
36.09280788116577
 21
22.50252112966244
 31
0.0
  0
LINE
  5
8AA
330
1F
100
AcDbEntity
  8
0
100
AcDbLine
 10
37.35280788116577
 20
22.50252112966244
 30
0.0
 11
37.28836217448683
 21
22.50252112966244
 31
0.0
  0
LINE
  5
8AB
330
1F
100
AcDbEntity
  8
0
100
AcDbLine
 10
37.35280788116577
 20
22.18462154584737
 30
0.0
 11
37.35280788116577
 21
22.03008018478054
 31
0.0
  0
LINE
  5
8AC
330
1F
100
AcDbEntity
  8
0
100
AcDbLine
 10
37.35280788116577
 20
22.50252112966244
 30
0.0
 11
37.35280788116577
 21
22.3479797685956
 31
0.0
  0
LINE
  5
8AD
330
1F
100
AcDbEntity
  8
0
100
AcDbLine
 10
38.97238928358858
 20
27.07781426210424
 30
0.0
 11
31.74024795952391
 21
27.07781426210424
 31
0.0
  0
ARC
  5
8AE
330
1F
100
AcDbEntity
  8
0
100
AcDbCircle
 10
39.59236611514896
 20
27.07781426210424
 30
0.0
 40
0.4999999999999997
100
AcDbArc
 50
99.3099401749862
 51
180.0
  0
LINE
  5
8AF
330
1F
100
AcDbEntity
  8
0
100
AcDbLine
 10
31.46736611514896
 20
27.07781426210424
 30
0.0
 11
31.46736611514896
 21
22.85567040387978
 31
0.0
  0
ARC
  5
8B4
330
1F
100
AcDbEntity
  8
0
100
AcDbCircle
 10
36.69132660340112
 20
9.502521129662437
 30
0.0
 40
0.375
100
AcDbArc
 50
0.0
 51
180.0
  0
LINE
  5
8B5
330
1F
100
AcDbEntity
  8
0
100
AcDbLine
 10
36.31632660340112
 20
9.502521129662437
 30
0.0
 11
31.61131440617201
 21
9.502521129662437
 31
0.0
  0
LINE
  5
A44
330
1F
100
AcDbEntity
  8
Layer1
100
AcDbLine
 10
79.84021521901573
 20
2.677125967612668
 30
0.0
 11
79.84021521901573
 21
14.92712596761267
 31
0.0
  0
LINE
  5
A45
330
1F
100
AcDbEntity
  8
Layer1
100
AcDbLine
 10
82.26021521901572
 20
2.677125967612668
 30
0.0
 11
82.26021521901572
 21
14.92712596761267
 31
0.0
  0
LINE
  5
A46
330
1F
100
AcDbEntity
  8
Layer1
100
AcDbLine
 10
82.07521521901572
 20
2.677125967612668
 30
0.0
 11
82.07521521901572
 21
7.458110634225065
 31
0.0
  0
LINE
  5
A47
330
1F
100
AcDbEntity
  8
Layer1
100
AcDbLine
 10
80.0252152190157
 20
2.677125967612668
 30
0.0
 11
80.0252152190157
 21
7.458110634225065
 31
0.0
  0
LINE
  5
A48
330
1F
100
AcDbEntity
  8
Layer1
100
AcDbLine
 10
79.84021521901573
 20
2.677125967612668
 30
0.0
 11
77.71521521901573
 21
2.677125967612668
 31
0.0
  0
LINE
  5
A49
330
1F
100
AcDbEntity
  8
Layer1
100
AcDbLine
 10
77.71521521901573
 20
2.677125967612668
 30
0.0
 11
77.02163853527864
 21
7.94830876401447
 31
0.0
  0
LINE
  5
A4A
330
1F
100
AcDbEntity
  8
0
100
AcDbLine
 10
77.34021521901573
 20
14.92712596761267
 30
0.0
 11
79.34063982447516
 21
30.22473466713595
 31
0.0
  0
LINE
  5
A4B
330
1F
100
AcDbEntity
  8
Layer2
100
AcDbLine
 10
78.38436118463034
 20
14.92712596761267
 30
0.0
 11
77.91628072239793
 21
14.92712596761267
 31
0.0
  0
LINE
  5
A4C
330
1F
100
AcDbEntity
  8
0
100
AcDbLine
 10
77.71316518691236
 20
14.92712596761267
 30
0.0
 11
77.45836065609186
 21
14.92712596761267
 31
0.0
  0
LINE
  5
A5E
330
1F
100
AcDbEntity
  8
0
100
AcDbLine
 10
79.84063982447516
 20
26.20297715125297
 30
0.0
 11
79.65563982447514
 21
26.20297715125297
 31
0.0
  0
LINE
  5
A5F
330
1F
100
AcDbEntity
  8
0
100
AcDbLine
 10
79.84063982447516
 20
27.20297715125301
 30
0.0
 11
79.65563982447514
 21
27.20297715125301
 31
0.0
  0
LINE
  5
A60
330
1F
100
AcDbEntity
  8
0
100
AcDbLine
 10
79.84063982447516
 20
28.20297715125301
 30
0.0
 11
79.65563982447514
 21
28.20297715125301
 31
0.0
  0
LINE
  5
A61
330
1F
100
AcDbEntity
  8
0
100
AcDbLine
 10
79.84063982447516
 20
27.20297715125301
 30
0.0
 11
79.84063982447516
 21
28.20297715125301
 31
0.0
  0
LINE
  5
A62
330
1F
100
AcDbEntity
  8
0
100
AcDbLine
 10
79.65563982447514
 20
28.20297715125301
 30
0.0
 11
79.65563982447514
 21
30.22473466713595
 31
0.0
  0
LINE
  5
A63
330
1F
100
AcDbEntity
  8
0
100
AcDbLine
 10
79.65563982447514
 20
26.20297715125297
 30
0.0
 11
79.65563982447514
 21
27.20297715125301
 31
0.0
  0
LINE
  5
A64
330
1F
100
AcDbEntity
  8
0
100
AcDbLine
 10
79.65563982447514
 20
30.22473466713595
 30
0.0
 11
79.34063982447516
 21
30.22473466713595
 31
0.0
  0
LINE
  5
A65
330
1F
100
AcDbEntity
  8
0
100
AcDbLine
 10
80.60833825631971
 20
26.17712596761267
 30
0.0
 11
81.48439234225923
 21
26.17712596761267
 31
0.0
  0
LINE
  5
A66
330
1F
100
AcDbEntity
  8
0
100
AcDbLine
 10
79.84063982447516
 20
14.93965288783227
 30
0.0
 11
79.84063982447516
 21
26.09296181126697
 31
0.0
  0
LINE
  5
A67
330
1F
100
AcDbEntity
  8
0
100
AcDbLine
 10
82.25979061355628
 20
14.93965288783227
 30
0.0
 11
81.57247341279472
 21
26.17712596761267
 31
0.0
  0
LINE
  5
A69
330
1F
100
AcDbEntity
  8
Layer1
100
AcDbLine
 10
82.07521521901572
 20
14.92712596761267
 30
0.0
 11
81.38707005727423
 21
26.17712596761267
 31
0.0
  0
CIRCLE
  5
A6B
330
1F
100
AcDbEntity
  8
0
100
AcDbCircle
 10
77.71316518691236
 20
6.966144124263764
 30
0.0
 40
0.0380551635296476
  0
CIRCLE
  5
A6C
330
1F
100
AcDbEntity
  8
0
100
AcDbCircle
 10
77.71316518691236
 20
15.20331740428787
 30
0.0
 40
0.0380551635296476
  0
LINE
  5
A6D
330
1F
100
AcDbEntity
  8
0
100
AcDbLine
 10
75.31589582380272
 20
2.361426047189866
 30
0.0
 11
74.62231914006564
 21
7.632608843591768
 31
0.0
  0
LINE
  5
A6E
330
1F
100
AcDbEntity
  8
Layer1
100
AcDbLine
 10
77.53179617434034
 20
2.652991882786964
 30
0.0
 11
75.49931486847815
 21
2.38556013201557
 31
0.0
  0
LINE
  5
A6F
330
1F
100
AcDbEntity
  8
0
100
AcDbLine
 10
80.78686752167565
 20
16.58365860634326
 30
0.0
 11
80.92550211459643
 21
18.62634222184246
 31
0.0
  0
LINE
  5
A70
330
1F
100
AcDbEntity
  8
0
100
AcDbLine
 10
81.31356291635579
 20
16.58365860634326
 30
0.0
 11
81.17492832343503
 21
18.62634222184246
 31
0.0
  0
LINE
  5
A71
330
1F
100
AcDbEntity
  8
0
100
AcDbLine
 10
80.91158062609495
 20
16.45019447105967
 30
0.0
 11
81.11317462096389
 21
16.45019447105967
 31
0.0
  0
ARC
  5
A72
330
1F
100
AcDbEntity
  8
0
100
AcDbCircle
 10
81.05021521901573
 20
18.61787808655887
 30
0.0
 40
0.1250000000000001
100
AcDbArc
 50
3.882644722850665
 51
176.1173552771493
  0
ARC
  5
A73
330
1F
100
AcDbEntity
  8
0
100
AcDbCircle
 10
80.91158062609495
 20
16.57519447105967
 30
0.0
 40
0.1250000000000001
100
AcDbArc
 50
176.1173552771234
 51
270.0
  0
ARC
  5
A74
330
1F
100
AcDbEntity
  8
0
100
AcDbCircle
 10
81.18884981193648
 20
16.57519447105967
 30
0.0
 40
0.125
100
AcDbArc
 50
270.0
 51
3.882644722876659
  0
LINE
  5
A75
330
1F
100
AcDbEntity
  8
0
100
AcDbLine
 10
84.38521521901572
 20
2.677125967612568
 30
0.0
 11
85.07879190275283
 21
7.94830876401447
 31
0.0
  0
CIRCLE
  5
A76
330
1F
100
AcDbEntity
  8
0
100
AcDbCircle
 10
84.38726525111905
 20
6.966144124263764
 30
0.0
 40
0.0380551635296476
  0
LINE
  5
A77
330
1F
100
AcDbEntity
  8
Layer1
100
AcDbLine
 10
82.26021521901572
 20
2.677125967612668
 30
0.0
 11
84.38521521901572
 21
2.677125967612568
 31
0.0
  0
LINE
  5
A78
330
1F
100
AcDbEntity
  8
0
100
AcDbLine
 10
84.76021521901572
 20
14.92712596761267
 30
0.0
 11
82.75979061355628
 21
30.22473466713595
 31
0.0
  0
LINE
  5
A7A
330
1F
100
AcDbEntity
  8
0
100
AcDbLine
 10
84.38726525111905
 20
14.92712596761267
 30
0.0
 11
84.62749336684521
 21
14.92712596761267
 31
0.0
  0
CIRCLE
  5
A7B
330
1F
100
AcDbEntity
  8
0
100
AcDbCircle
 10
84.38726525111905
 20
15.20331740428787
 30
0.0
 40
0.0380551635296476
  0
LINE
  5
A7C
330
1F
100
AcDbEntity
  8
0
100
AcDbLine
 10
82.25979061355628
 20
26.20297715125297
 30
0.0
 11
82.44479061355628
 21
26.20297715125297
 31
0.0
  0
LINE
  5
A7D
330
1F
100
AcDbEntity
  8
0
100
AcDbLine
 10
82.25979061355628
 20
27.20297715125301
 30
0.0
 11
82.44479061355628
 21
27.20297715125301
 31
0.0
  0
LINE
  5
A7E
330
1F
100
AcDbEntity
  8
0
100
AcDbLine
 10
82.25979061355628
 20
28.20297715125301
 30
0.0
 11
82.44479061355628
 21
28.20297715125301
 31
0.0
  0
LINE
  5
A7F
330
1F
100
AcDbEntity
  8
0
100
AcDbLine
 10
82.25979061355628
 20
27.20297715125301
 30
0.0
 11
82.25979061355628
 21
28.20297715125301
 31
0.0
  0
LINE
  5
A80
330
1F
100
AcDbEntity
  8
0
100
AcDbLine
 10
82.44479061355628
 20
28.20297715125301
 30
0.0
 11
82.44479061355628
 21
30.22473466713595
 31
0.0
  0
LINE
  5
A81
330
1F
100
AcDbEntity
  8
0
100
AcDbLine
 10
82.44479061355628
 20
26.20297715125297
 30
0.0
 11
82.44479061355628
 21
27.20297715125301
 31
0.0
  0
LINE
  5
A82
330
1F
100
AcDbEntity
  8
0
100
AcDbLine
 10
82.25979061355628
 20
14.93965288783227
 30
0.0
 11
82.25979061355628
 21
26.10440989635568
 31
0.0
  0
LINE
  5
A83
330
1F
100
AcDbEntity
  8
0
100
AcDbLine
 10
82.44479061355628
 20
30.22473466713595
 30
0.0
 11
82.75979061355628
 21
30.22473466713595
 31
0.0
  0
LINE
  5
A84
330
1F
100
AcDbEntity
  8
Layer1
100
AcDbLine
 10
76.57807441786596
 20
3.887130529044395
 30
0.0
 11
76.1291751946408
 21
3.828617137718069
 31
0.0
  0
ARC
  5
A85
330
1F
100
AcDbEntity
  8
Layer3
100
AcDbCircle
 10
75.63336294513681
 20
3.80007929717588
 30
0.0
 40
0.4966328574519779
100
AcDbArc
 50
3.294181952589964
 51
42.47318432664592
  0
ARC
  5
A86
330
1F
100
AcDbEntity
  8
Layer3
100
AcDbCircle
 10
75.85111369938033
 20
3.989685647847474
 30
0.0
 40
0.2081145608561598
100
AcDbArc
 50
44.45104399911744
 51
80.31898680708092
  0
ARC
  5
A87
330
1F
100
AcDbEntity
  8
Layer3
100
AcDbCircle
 10
75.93767530254867
 20
4.451987520390011
 30
0.0
 40
0.2622699820265729
100
AcDbArc
 50
209.9230807335131
 51
258.6613006271602
  0
ARC
  5
A88
330
1F
100
AcDbEntity
  8
Layer3
100
AcDbCircle
 10
76.31737735865606
 20
4.652928234737331
 30
0.0
 40
0.6917610555315685
100
AcDbArc
 50
186.2501155304919
 51
208.6594751793756
  0
LINE
  5
A89
330
1F
100
AcDbEntity
  8
Layer3
100
AcDbLine
 10
75.62972804872484
 20
4.577616983909778
 30
0.0
 11
75.59866262694788
 21
4.815942662677081
 31
0.0
  0
ARC
  5
A8A
330
1F
100
AcDbEntity
  8
Layer3
100
AcDbCircle
 10
77.06463513887802
 20
3.986643643100114
 30
0.0
 40
0.4966328574519779
100
AcDbArc
 50
152.3799224329873
 51
191.5589248070424
  0
ARC
  5
A8B
330
1F
100
AcDbEntity
  8
Layer3
100
AcDbCircle
 10
76.80555623360782
 20
4.114095908802097
 30
0.0
 40
0.2081145608561598
100
AcDbArc
 50
114.5341199525427
 51
150.4020627604982
  0
ARC
  5
A8C
330
1F
100
AcDbEntity
  8
Layer3
100
AcDbCircle
 10
76.60337969504259
 20
4.53876116491938
 30
0.0
 40
0.2622699820265729
100
AcDbArc
 50
296.191806132483
 51
344.9300260261312
  0
ARC
  5
A8D
330
1F
100
AcDbEntity
  8
Layer3
100
AcDbCircle
 10
76.18485542469284
 20
4.635654184393475
 30
0.0
 40
0.6917610555315685
100
AcDbArc
 50
346.1936315802527
 51
8.602991229138986
  0
LINE
  5
A8E
330
1F
100
AcDbEntity
  8
Layer3
100
AcDbLine
 10
76.86883318116392
 20
4.73913261984239
 30
0.0
 11
76.83776775938699
 21
4.97745829860968
 31
0.0
  0
LINE
  5
A8F
330
1F
100
AcDbEntity
  8
Layer3
100
AcDbLine
 10
76.83776775938699
 20
4.97745829860968
 30
0.0
 11
75.59866262694788
 21
4.815942662677081
 31
0.0
  0
LINE
  5
A92
330
1F
100
AcDbEntity
  8
0
100
AcDbLine
 10
76.74885814949184
 20
8.603320871635376
 30
0.0
 11
75.80341459525816
 21
8.478920403973065
 31
0.0
  0
LINE
  5
A93
330
1F
100
AcDbEntity
  8
0
100
AcDbLine
 10
75.5605320271014
 20
1.920309726478763
 30
0.0
 11
75.49931486847815
 21
2.38556013201557
 31
0.0
  0
LINE
  5
A94
330
1F
100
AcDbEntity
  8
Layer3
100
AcDbLine
 10
74.80573818474107
 20
7.656742928417472
 30
0.0
 11
74.71637684362963
 21
8.335889120864067
 31
0.0
  0
LINE
  5
A95
330
1F
100
AcDbEntity
  8
Layer3
100
AcDbLine
 10
76.83821949060325
 20
7.924174679188766
 30
0.0
 11
76.74885814949184
 21
8.603320871635376
 31
0.0
  0
LINE
  5
A96
330
1F
100
AcDbEntity
  8
0
100
AcDbLine
 10
77.59301333296362
 20
2.187741477250071
 30
0.0
 11
77.53179617434034
 21
2.652991882786964
 31
0.0
  0
LINE
  5
A97
330
1F
100
AcDbEntity
  8
0
100
AcDbLine
 10
74.80573818474107
 20
7.656742928417472
 30
0.0
 11
74.62231914006564
 21
7.632608843591768
 31
0.0
  0
LINE
  5
A98
330
1F
100
AcDbEntity
  8
0
100
AcDbLine
 10
77.02163853527864
 20
7.94830876401447
 30
0.0
 11
76.83821949060325
 21
7.924174679188766
 31
0.0
  0
LINE
  5
A99
330
1F
100
AcDbEntity
  8
Layer1
100
AcDbLine
 10
76.83821949060325
 20
7.924174679188766
 30
0.0
 11
74.80573818474105
 21
7.656742928417472
 31
0.0
  0
LINE
  5
A9E
330
1F
100
AcDbEntity
  8
Layer2
100
AcDbLine
 10
81.53559144422852
 20
6.102356227618472
 30
0.0
 11
81.53559144422852
 21
6.831333072784673
 31
0.0
  0
LINE
  5
A9F
330
1F
100
AcDbEntity
  8
Layer2
100
AcDbLine
 10
81.53559144422852
 20
6.831333072784673
 30
0.0
 11
81.0329532957077
 21
6.831333072784673
 31
0.0
  0
LINE
  5
AA0
330
1F
100
AcDbEntity
  8
Layer2
100
AcDbLine
 10
81.53559144422852
 20
6.102356227618472
 30
0.0
 11
81.4338413300849
 21
6.102356227618472
 31
0.0
  0
LINE
  5
AA1
330
1F
100
AcDbEntity
  8
Layer2
100
AcDbLine
 10
81.4338413300849
 20
6.102356227618472
 30
0.0
 11
81.4338413300849
 21
6.831333072784673
 31
0.0
  0
LINE
  5
AA2
330
1F
100
AcDbEntity
  8
Layer2
100
AcDbLine
 10
81.4338413300849
 20
6.728189121460971
 30
0.0
 11
81.0329532957077
 21
6.728189121460971
 31
0.0
  0
LINE
  5
AA3
330
1F
100
AcDbEntity
  8
Layer2
100
AcDbLine
 10
80.53031514718688
 20
6.102356227618472
 30
0.0
 11
80.53031514718688
 21
6.831333072784673
 31
0.0
  0
LINE
  5
AA4
330
1F
100
AcDbEntity
  8
Layer2
100
AcDbLine
 10
80.53031514718688
 20
6.831333072784673
 30
0.0
 11
81.0329532957077
 21
6.831333072784673
 31
0.0
  0
LINE
  5
AA5
330
1F
100
AcDbEntity
  8
Layer2
100
AcDbLine
 10
80.53031514718688
 20
6.102356227618472
 30
0.0
 11
80.63206526133061
 21
6.102356227618472
 31
0.0
  0
LINE
  5
AA6
330
1F
100
AcDbEntity
  8
Layer2
100
AcDbLine
 10
80.63206526133061
 20
6.102356227618472
 30
0.0
 11
80.63206526133061
 21
6.831333072784673
 31
0.0
  0
LINE
  5
AA7
330
1F
100
AcDbEntity
  8
Layer2
100
AcDbLine
 10
80.63206526133061
 20
6.728189121460971
 30
0.0
 11
81.0329532957077
 21
6.728189121460971
 31
0.0
  0
LINE
  5
AB6
330
1F
100
AcDbEntity
  8
0
100
AcDbLine
 10
83.94875564431217
 20
10.47534839097027
 30
0.0
 11
84.38726525111905
 21
14.92712596761267
 31
0.0
  0
LINE
  5
AB7
330
1F
100
AcDbEntity
  8
0
100
AcDbLine
 10
83.94875564431217
 20
8.975348390970268
 30
0.0
 11
83.94875564431217
 21
10.2841215793589
 31
0.0
  0
LINE
  5
AB8
330
1F
100
AcDbEntity
  8
0
100
AcDbLine
 10
83.94875564431217
 20
8.975348390970268
 30
0.0
 11
84.09408708326725
 21
8.149493202971172
 31
0.0
  0
ARC
  5
AB9
330
1F
100
AcDbEntity
  8
0
100
AcDbCircle
 10
-84.54972906466955
 20
7.641487829126874
 30
0.0
 40
0.1143618615142543
210
0.0
220
0.0
230
-1.0
100
AcDbArc
 50
212.2421816373032
 51
327.7578183626968
  0
LINE
  5
ABA
330
1F
100
AcDbEntity
  8
0
100
AcDbLine
 10
84.09408708326725
 20
8.149493202971172
 30
0.0
 11
84.45300173028735
 21
7.580475878229365
 31
0.0
  0
LINE
  5
ABB
330
1F
100
AcDbEntity
  8
0
100
AcDbLine
 10
84.89382299739324
 20
7.972646777877571
 30
0.0
 11
84.64645639905177
 21
7.580475878229365
 31
0.0
  0
LINE
  5
ABC
330
1F
100
AcDbEntity
  8
0
100
AcDbLine
 10
84.89382299739324
 20
7.972646777877571
 30
0.0
 11
85.07879190275283
 21
7.94830876401447
 31
0.0
  0
LINE
  5
ABD
330
1F
100
AcDbEntity
  8
0
100
AcDbLine
 10
78.15167479371928
 20
10.47534839097027
 30
0.0
 11
77.71316518691239
 21
14.92712596761267
 31
0.0
  0
LINE
  5
ABE
330
1F
100
AcDbEntity
  8
0
100
AcDbLine
 10
78.15167479371928
 20
9.17069629385307
 30
0.0
 11
78.15167479371928
 21
10.47534839097027
 31
0.0
  0
LINE
  5
ABF
330
1F
100
AcDbEntity
  8
0
100
AcDbLine
 10
78.15167479371928
 20
8.975348390970268
 30
0.0
 11
78.00634335476421
 21
8.149493202971172
 31
0.0
  0
ARC
  5
AC0
330
1F
100
AcDbEntity
  8
0
100
AcDbCircle
 10
-77.5507013733619
 20
7.641487829126874
 30
0.0
 40
0.1143618615142543
210
0.0
220
0.0
230
-1.0
100
AcDbArc
 50
212.2421816373032
 51
327.7578183626968
  0
LINE
  5
AC1
330
1F
100
AcDbEntity
  8
0
100
AcDbLine
 10
78.00634335476421
 20
8.149493202971172
 30
0.0
 11
77.64742870774411
 21
7.580475878229365
 31
0.0
  0
LINE
  5
AC2
330
1F
100
AcDbEntity
  8
0
100
AcDbLine
 10
77.20660744063821
 20
7.972646777877571
 30
0.0
 11
77.45397403897968
 21
7.580475878229365
 31
0.0
  0
LINE
  5
AC3
330
1F
100
AcDbEntity
  8
0
100
AcDbLine
 10
77.20660744063821
 20
7.972646777877571
 30
0.0
 11
77.02163853527863
 21
7.94830876401447
 31
0.0
  0
LINE
  5
AE8
330
1F
100
AcDbEntity
  8
0
100
AcDbLine
 10
82.26021521901572
 20
2.677125967612668
 30
0.0
 11
82.26021521901572
 21
2.207865399950975
 31
0.0
  0
LINE
  5
AE9
330
1F
100
AcDbEntity
  8
0
100
AcDbLine
 10
82.26021521901572
 20
2.207865399950975
 30
0.0
 11
84.29187787357026
 21
2.207865399950975
 31
0.0
  0
LINE
  5
AEA
330
1F
100
AcDbEntity
  8
0
100
AcDbLine
 10
84.38521521901572
 20
2.207865399950975
 30
0.0
 11
84.38521521901572
 21
2.677125967612568
 31
0.0
  0
LINE
  5
AEB
330
1F
100
AcDbEntity
  8
0
100
AcDbLine
 10
82.07521521901572
 20
2.677125967612668
 30
0.0
 11
82.07521521901572
 21
2.207865399950975
 31
0.0
  0
LINE
  5
AED
330
1F
100
AcDbEntity
  8
0
100
AcDbLine
 10
80.0252152190157
 20
2.207865399950975
 30
0.0
 11
80.0252152190157
 21
2.677125967612668
 31
0.0
  0
LINE
  5
AEE
330
1F
100
AcDbEntity
  8
0
100
AcDbLine
 10
77.71521521901573
 20
2.677125967612668
 30
0.0
 11
77.71521521901573
 21
2.207865399950975
 31
0.0
  0
LINE
  5
AEF
330
1F
100
AcDbEntity
  8
0
100
AcDbLine
 10
77.79064172771835
 20
2.207865399950975
 30
0.0
 11
79.84021521901573
 21
2.207865399950975
 31
0.0
  0
LINE
  5
AF0
330
1F
100
AcDbEntity
  8
0
100
AcDbLine
 10
79.84021521901573
 20
2.207865399950975
 30
0.0
 11
79.84021521901573
 21
2.677125967612668
 31
0.0
  0
LINE
  5
AF1
330
1F
100
AcDbEntity
  8
0
100
AcDbLine
 10
82.26021521901572
 20
2.677125967612668
 30
0.0
 11
82.07521521901572
 21
2.677125967612668
 31
0.0
  0
LINE
  5
AF2
330
1F
100
AcDbEntity
  8
0
100
AcDbLine
 10
79.84021521901573
 20
2.677125967612668
 30
0.0
 11
80.0252152190157
 21
2.677125967612668
 31
0.0
  0
LINE
  5
AF3
330
1F
100
AcDbEntity
  8
0
100
AcDbLine
 10
77.59301333296362
 20
2.187741477250071
 30
0.0
 11
75.5605320271014
 21
1.920309726478763
 31
0.0
  0
LINE
  5
AF4
330
1F
100
AcDbEntity
  8
Layer1
100
AcDbLine
 10
77.53179617434034
 20
2.652991882786964
 30
0.0
 11
76.83821949060325
 21
7.924174679188766
 31
0.0
  0
LINE
  5
AF6
330
1F
100
AcDbEntity
  8
0
100
AcDbLine
 10
77.53179617434034
 20
2.652991882786964
 30
0.0
 11
77.71521521901573
 21
2.677125967612668
 31
0.0
  0
LINE
  5
AF7
330
1F
100
AcDbEntity
  8
0
100
AcDbLine
 10
75.49931486847815
 20
2.38556013201557
 30
0.0
 11
75.31589582380272
 21
2.361426047189866
 31
0.0
  0
LINE
  5
B32
330
1F
100
AcDbEntity
  8
Layer1
100
AcDbLine
 10
84.54861008270875
 20
25.39141670626733
 30
0.0
 11
85.48111008270875
 21
9.953943626486925
 31
0.0
  0
LINE
  5
B33
330
1F
100
AcDbEntity
  8
Layer1
100
AcDbLine
 10
86.59861008270876
 20
25.39141670626733
 30
0.0
 11
85.66611008270876
 21
9.953943626486925
 31
0.0
  0
LINE
  5
B36
330
1F
100
AcDbEntity
  8
Layer1
100
AcDbLine
 10
84.54861008270875
 20
25.39141670626733
 30
0.0
 11
86.59861008270876
 21
25.39141670626733
 31
0.0
  0
LINE
  5
B37
330
1F
100
AcDbEntity
  8
Layer1
100
AcDbLine
 10
84.54861008270875
 20
25.57641670626733
 30
0.0
 11
86.59861008270876
 21
25.57641670626733
 31
0.0
  0
LINE
  5
B3A
330
1F
100
AcDbEntity
  8
0
100
AcDbLine
 10
86.51368319423322
 20
25.95641670626732
 30
0.0
 11
84.67174354389748
 21
25.95641670626732
 31
0.0
  0
LINE
  5
B3B
330
1F
100
AcDbEntity
  8
0
100
AcDbLine
 10
85.66611008270876
 20
9.953943626486925
 30
0.0
 11
85.85068547724931
 21
9.941416706267326
 31
0.0
  0
LINE
  5
B3C
330
1F
100
AcDbEntity
  8
0
100
AcDbLine
 10
85.61345226498646
 20
9.953943626486925
 30
0.0
 11
85.48111008270875
 21
9.953943626486925
 31
0.0
  0
LINE
  5
B3D
330
1F
100
AcDbEntity
  8
0
100
AcDbLine
 10
85.48111008270875
 20
9.953943626486925
 30
0.0
 11
85.2965346881682
 21
9.941416706267326
 31
0.0
  0
LINE
  5
B3E
330
1F
100
AcDbEntity
  8
0
100
AcDbLine
 10
85.66611008270876
 20
11.13615186426072
 30
0.0
 11
85.66611008270876
 21
15.59446615417761
 31
0.0
  0
LINE
  5
B3F
330
1F
100
AcDbEntity
  8
0
100
AcDbLine
 10
85.48111008270875
 20
15.70394362648693
 30
0.0
 11
85.66611008270876
 21
15.70394362648693
 31
0.0
  0
LINE
  5
B40
330
1F
100
AcDbEntity
  8
0
100
AcDbLine
 10
85.48111008270875
 20
11.13615186426072
 30
0.0
 11
85.48111008270875
 21
15.57761896021724
 31
0.0
  0
LINE
  5
134C
330
1F
100
AcDbEntity
  8
0
100
AcDbLine
 10
79.84063982447518
 20
14.93965288783227
 30
0.0
 11
80.5279570252367
 21
26.17712596761267
 31
0.0
  0
LINE
  5
134D
330
1F
100
AcDbEntity
  8
Layer1
100
AcDbLine
 10
80.02521521901573
 20
14.92712596761267
 30
0.0
 11
80.71336038075722
 21
26.17712596761267
 31
0.0
  0
LINE
  5
134E
330
1F
100
AcDbEntity
  8
0
100
AcDbLine
 10
82.07521521901572
 20
2.207865399950975
 30
0.0
 11
80.0252152190157
 21
2.207865399950975
 31
0.0
  0
LINE
  5
1350
330
1F
100
AcDbEntity
  8
Layer1
100
AcDbLine
 10
82.07521521901572
 20
2.677125967612668
 30
0.0
 11
80.0252152190157
 21
2.677125967612668
 31
0.0
  0
LINE
  5
1352
330
1F
100
AcDbEntity
  8
0
100
AcDbLine
 10
84.54861008270875
 20
25.95641670626732
 30
0.0
 11
84.54861008270875
 21
25.39141670626733
 31
0.0
  0
LINE
  5
1353
330
1F
100
AcDbEntity
  8
0
100
AcDbLine
 10
86.59861008270876
 20
25.95641670626732
 30
0.0
 11
86.59861008270876
 21
25.39141670626733
 31
0.0
  0
LINE
  5
1354
330
1F
100
AcDbEntity
  8
0
100
AcDbLine
 10
84.36394667215377
 20
25.38026211966802
 30
0.0
 11
85.29644667215376
 21
9.942789039887721
 31
0.0
  0
LINE
  5
1355
330
1F
100
AcDbEntity
  8
0
100
AcDbLine
 10
86.78327349326374
 20
25.38026211966802
 30
0.0
 11
85.85077349326373
 21
9.942789039887721
 31
0.0
  0
LINE
  5
1356
330
1F
100
AcDbEntity
  8
0
100
AcDbLine
 10
84.36394667215377
 20
25.38026211966802
 30
0.0
 11
84.54861008270875
 21
25.39141670626733
 31
0.0
  0
LINE
  5
1357
330
1F
100
AcDbEntity
  8
0
100
AcDbLine
 10
86.59861008270876
 20
25.39141670626733
 30
0.0
 11
86.78327349326374
 21
25.38026211966802
 31
0.0
  0
LINE
  5
1358
330
1F
100
AcDbEntity
  8
Layer1
100
AcDbLine
 10
75.49931486847815
 20
2.38556013201557
 30
0.0
 11
74.80573818474105
 21
7.656742928417373
 31
0.0
  0
SPLINE
  5
1382
330
1F
100
AcDbEntity
  8
Layer 1
100
AcDbSpline
210
0.0
220
0.0
230
1.0
 70
    11
 71
     3
 72
    17
 73
    13
 74
     0
 42
0.000000001
 43
0.0000000001
 40
0.0
 40
0.0
 40
0.0
 40
0.0
 40
1.0
 40
1.0
 40
1.0
 40
2.0
 40
2.0
 40
2.0
 40
3.0
 40
3.0
 40
3.0
 40
4.0
 40
4.0
 40
4.0
 40
4.0
 10
83.0405203778428
 20
3.923264222414076
 30
0.0
 10
83.01840657779397
 20
3.923264222414076
 30
0.0
 10
83.00048004377703
 20
3.90533726454187
 30
0.0
 10
83.00048004377703
 20
3.883223464493071
 30
0.0
 10
83.00048004377703
 20
3.861110088299469
 30
0.0
 10
83.01840657779397
 20
3.843183130427263
 30
0.0
 10
83.0405203778428
 20
3.843183130427263
 30
0.0
 10
83.06263417789162
 20
3.843183130427263
 30
0.0
 10
83.08056071190853
 20
3.861110088299469
 30
0.0
 10
83.08056071190853
 20
3.883223464493071
 30
0.0
 10
83.08056071190853
 20
3.90533726454187
 30
0.0
 10
83.06263417789162
 20
3.923264222414076
 30
0.0
 10
83.0405203778428
 20
3.923264222414076
 30
0.0
  0
SPLINE
  5
1383
330
1F
100
AcDbEntity
  8
Layer 1
100
AcDbSpline
210
0.0
220
0.0
230
1.0
 70
    11
 71
     3
 72
    17
 73
    13
 74
     0
 42
0.000000001
 43
0.0000000001
 40
0.0
 40
0.0
 40
0.0
 40
0.0
 40
1.0
 40
1.0
 40
1.0
 40
2.0
 40
2.0
 40
2.0
 40
3.0
 40
3.0
 40
3.0
 40
4.0
 40
4.0
 40
4.0
 40
4.0
 10
83.0405203778428
 20
5.481913497452069
 30
0.0
 10
83.01840657779397
 20
5.481913497452069
 30
0.0
 10
83.00048004377703
 20
5.463986539579864
 30
0.0
 10
83.00048004377703
 20
5.441872739530965
 30
0.0
 10
83.00048004377703
 20
5.419759363337477
 30
0.0
 10
83.01840657779397
 20
5.401832405465271
 30
0.0
 10
83.0405203778428
 20
5.401832405465271
 30
0.0
 10
83.06263417789162
 20
5.401832405465271
 30
0.0
 10
83.08056071190853
 20
5.419759363337477
 30
0.0
 10
83.08056071190853
 20
5.441872739530965
 30
0.0
 10
83.08056071190853
 20
5.463986539579864
 30
0.0
 10
83.06263417789162
 20
5.481913497452069
 30
0.0
 10
83.0405203778428
 20
5.481913497452069
 30
0.0
  0
SPLINE
  5
1384
330
1F
100
AcDbEntity
  8
Layer 1
100
AcDbSpline
210
0.0
220
0.0
230
1.0
 70
    11
 71
     3
 72
    17
 73
    13
 74
     0
 42
0.000000001
 43
0.0000000001
 40
0.0
 40
0.0
 40
0.0
 40
0.0
 40
1.0
 40
1.0
 40
1.0
 40
2.0
 40
2.0
 40
2.0
 40
3.0
 40
3.0
 40
3.0
 40
4.0
 40
4.0
 40
4.0
 40
4.0
 10
79.05991006018866
 20
3.923264222414076
 30
0.0
 10
79.08202386023748
 20
3.923264222414076
 30
0.0
 10
79.0999503942544
 20
3.90533726454187
 30
0.0
 10
79.0999503942544
 20
3.883223464493071
 30
0.0
 10
79.0999503942544
 20
3.861110088299469
 30
0.0
 10
79.08202386023748
 20
3.843183130427263
 30
0.0
 10
79.05991006018866
 20
3.843183130427263
 30
0.0
 10
79.03779626013983
 20
3.843183130427263
 30
0.0
 10
79.0198697261229
 20
3.861110088299469
 30
0.0
 10
79.0198697261229
 20
3.883223464493071
 30
0.0
 10
79.0198697261229
 20
3.90533726454187
 30
0.0
 10
79.03779626013983
 20
3.923264222414076
 30
0.0
 10
79.05991006018866
 20
3.923264222414076
 30
0.0
  0
SPLINE
  5
1385
330
1F
100
AcDbEntity
  8
Layer 1
100
AcDbSpline
210
0.0
220
0.0
230
1.0
 70
    11
 71
     3
 72
    17
 73
    13
 74
     0
 42
0.000000001
 43
0.0000000001
 40
0.0
 40
0.0
 40
0.0
 40
0.0
 40
1.0
 40
1.0
 40
1.0
 40
2.0
 40
2.0
 40
2.0
 40
3.0
 40
3.0
 40
3.0
 40
4.0
 40
4.0
 40
4.0
 40
4.0
 10
79.05991006018866
 20
5.481913497452069
 30
0.0
 10
79.08202386023748
 20
5.481913497452069
 30
0.0
 10
79.0999503942544
 20
5.463986539579864
 30
0.0
 10
79.0999503942544
 20
5.441872739531064
 30
0.0
 10
79.0999503942544
 20
5.419759363337477
 30
0.0
 10
79.08202386023748
 20
5.401832405465271
 30
0.0
 10
79.05991006018866
 20
5.401832405465271
 30
0.0
 10
79.03779626013983
 20
5.401832405465271
 30
0.0
 10
79.0198697261229
 20
5.419759363337477
 30
0.0
 10
79.0198697261229
 20
5.441872739531064
 30
0.0
 10
79.0198697261229
 20
5.463986539579864
 30
0.0
 10
79.03779626013983
 20
5.481913497452069
 30
0.0
 10
79.05991006018866
 20
5.481913497452069
 30
0.0
  0
POLYLINE
  5
13CA
330
1F
100
AcDbEntity
  8
Layer2
100
AcDb2dPolyline
 66
     1
 10
0.0
 20
0.0
 30
0.0
  0
VERTEX
  5
18A2
330
13CA
100
AcDbEntity
  8
Layer2
100
AcDbVertex
100
AcDb2dVertex
 10
83.86521521901574
 20
6.157714244793567
 30
0.0
  0
VERTEX
  5
18A3
330
13CA
100
AcDbEntity
  8
Layer2
100
AcDbVertex
100
AcDb2dVertex
 10
83.86521521901574
 20
5.999962852852974
 30
0.0
  0
SEQEND
  5
18A9
330
13CA
100
AcDbEntity
  8
Layer2
  0
POLYLINE
  5
13E6
330
1F
100
AcDbEntity
  8
Layer2
100
AcDb2dPolyline
 66
     1
 10
0.0
 20
0.0
 30
0.0
  0
VERTEX
  5
18AC
330
13E6
100
AcDbEntity
  8
Layer2
100
AcDbVertex
100
AcDb2dVertex
 10
83.68521521901573
 20
7.837030447593065
 30
0.0
  0
VERTEX
  5
18AD
330
13E6
100
AcDbEntity
  8
Layer2
100
AcDbVertex
100
AcDb2dVertex
 10
83.52746382707505
 20
7.837030447593065
 30
0.0
  0
SEQEND
  5
18B9
330
13E6
100
AcDbEntity
  8
Layer2
  0
POLYLINE
  5
13EA
330
1F
100
AcDbEntity
  8
Layer2
100
AcDb2dPolyline
 66
     1
 10
0.0
 20
0.0
 30
0.0
  0
VERTEX
  5
18BA
330
13EA
100
AcDbEntity
  8
Layer2
100
AcDbVertex
100
AcDb2dVertex
 10
83.68521521901573
 20
7.458110634225065
 30
0.0
  0
VERTEX
  5
18BB
330
13EA
100
AcDbEntity
  8
Layer2
100
AcDbVertex
100
AcDb2dVertex
 10
83.68521521901573
 20
7.615862026165672
 30
0.0
  0
SEQEND
  5
18C0
330
13EA
100
AcDbEntity
  8
Layer2
  0
POLYLINE
  5
13EE
330
1F
100
AcDbEntity
  8
Layer2
100
AcDb2dPolyline
 66
     1
 10
0.0
 20
0.0
 30
0.0
  0
VERTEX
  5
18B1
330
13EE
100
AcDbEntity
  8
Layer2
100
AcDbVertex
100
AcDb2dVertex
 10
82.44521521901574
 20
7.458110634225065
 30
0.0
  0
VERTEX
  5
18B2
330
13EE
100
AcDbEntity
  8
Layer2
100
AcDbVertex
100
AcDb2dVertex
 10
82.6029666109564
 20
7.458110634225065
 30
0.0
  0
SEQEND
  5
18B7
330
13EE
100
AcDbEntity
  8
Layer2
  0
POLYLINE
  5
13F6
330
1F
100
AcDbEntity
  8
Layer2
100
AcDb2dPolyline
 66
     1
 10
0.0
 20
0.0
 30
0.0
  0
VERTEX
  5
1914
330
13F6
100
AcDbEntity
  8
Layer2
100
AcDbVertex
100
AcDb2dVertex
 10
82.44521521901574
 20
14.54820615424457
 30
0.0
  0
VERTEX
  5
1915
330
13F6
100
AcDbEntity
  8
Layer2
100
AcDbVertex
100
AcDb2dVertex
 10
82.6029666109564
 20
14.54820615424457
 30
0.0
  0
SEQEND
  5
191A
330
13F6
100
AcDbEntity
  8
Layer2
  0
POLYLINE
  5
149A
330
1F
100
AcDbEntity
  8
Layer 1
100
AcDb2dPolyline
 66
     1
 10
0.0
 20
0.0
 30
0.0
  0
VERTEX
  5
149B
330
149A
100
AcDbEntity
  8
Layer 1
100
AcDbVertex
100
AcDb2dVertex
 10
88.94232471955792
 20
3.175470854287269
 30
0.0
  0
VERTEX
  5
149C
330
149A
100
AcDbEntity
  8
Layer 1
100
AcDbVertex
100
AcDb2dVertex
 10
88.94232471955792
 20
7.618520905936101
 30
0.0
  0
SEQEND
  5
149D
330
149A
100
AcDbEntity
  8
Layer 1
  0
POLYLINE
  5
149E
330
1F
100
AcDbEntity
  8
Layer 1
100
AcDb2dPolyline
 66
     1
 10
0.0
 20
0.0
 30
0.0
  0
VERTEX
  5
149F
330
149E
100
AcDbEntity
  8
Layer 1
100
AcDbVertex
100
AcDb2dVertex
 10
86.22738433056051
 20
5.530727101846892
 30
0.0
  0
VERTEX
  5
14A0
330
149E
100
AcDbEntity
  8
Layer 1
100
AcDbVertex
100
AcDb2dVertex
 10
86.22738433056051
 20
5.21821565775511
 30
0.0
  0
SEQEND
  5
14A1
330
149E
100
AcDbEntity
  8
Layer 1
  0
SPLINE
  5
14A2
330
1F
100
AcDbEntity
  8
Layer 1
100
AcDbSpline
210
0.0
220
0.0
230
1.0
 70
     8
 71
     3
 72
     8
 73
     4
 74
     0
 42
0.000000001
 43
0.0000000001
 40
0.0
 40
0.0
 40
0.0
 40
0.0
 40
1.0
 40
1.0
 40
1.0
 40
1.0
 10
86.32016115890251
 20
5.626433617688903
 30
0.0
 10
86.2678430097597
 20
5.626433617688903
 30
0.0
 10
86.22543120556051
 20
5.584021389634458
 30
0.0
 10
86.22543120556051
 20
5.531703664346892
 30
0.0
  0
POLYLINE
  5
14A3
330
1F
100
AcDbEntity
  8
Layer 1
100
AcDb2dPolyline
 66
     1
 10
0.0
 20
0.0
 30
0.0
  0
VERTEX
  5
14A4
330
14A3
100
AcDbEntity
  8
Layer 1
100
AcDbVertex
100
AcDb2dVertex
 10
88.94232471955792
 20
2.954463250257291
 30
0.0
  0
VERTEX
  5
14A5
330
14A3
100
AcDbEntity
  8
Layer 1
100
AcDbVertex
100
AcDb2dVertex
 10
85.5867364423769
 20
2.954463250257291
 30
0.0
  0
SEQEND
  5
14A6
330
14A3
100
AcDbEntity
  8
Layer 1
  0
POLYLINE
  5
14A7
330
1F
100
AcDbEntity
  8
Layer 1
100
AcDb2dPolyline
 66
     1
 10
0.0
 20
0.0
 30
0.0
  0
VERTEX
  5
14A8
330
14A7
100
AcDbEntity
  8
Layer 1
100
AcDbVertex
100
AcDb2dVertex
 10
85.5867364423769
 20
7.794479509344725
 30
0.0
  0
VERTEX
  5
14A9
330
14A7
100
AcDbEntity
  8
Layer 1
100
AcDbVertex
100
AcDb2dVertex
 10
88.94232471955792
 20
7.794479509344725
 30
0.0
  0
SEQEND
  5
14AA
330
14A7
100
AcDbEntity
  8
Layer 1
  0
POLYLINE
  5
14AB
330
1F
100
AcDbEntity
  8
Layer1
100
AcDb2dPolyline
 66
     1
 10
0.0
 20
0.0
 30
0.0
  0
VERTEX
  5
14AC
330
14AB
100
AcDbEntity
  8
Layer1
100
AcDbVertex
100
AcDb2dVertex
 10
85.5867364423769
 20
4.37443556403224
 30
0.0
  0
VERTEX
  5
14AD
330
14AB
100
AcDbEntity
  8
Layer1
100
AcDbVertex
100
AcDb2dVertex
 10
88.94232471955792
 20
4.37443556403224
 30
0.0
  0
SEQEND
  5
14AE
330
14AB
100
AcDbEntity
  8
Layer1
  0
POLYLINE
  5
14AF
330
1F
100
AcDbEntity
  8
Layer1
100
AcDb2dPolyline
 66
     1
 10
0.0
 20
0.0
 30
0.0
  0
VERTEX
  5
14B0
330
14AF
100
AcDbEntity
  8
Layer1
100
AcDbVertex
100
AcDb2dVertex
 10
85.5867364423769
 20
6.544434580688048
 30
0.0
  0
VERTEX
  5
14B1
330
14AF
100
AcDbEntity
  8
Layer1
100
AcDbVertex
100
AcDb2dVertex
 10
88.94232471955792
 20
6.544434580688048
 30
0.0
  0
SEQEND
  5
14B2
330
14AF
100
AcDbEntity
  8
Layer1
  0
POLYLINE
  5
14B3
330
1F
100
AcDbEntity
  8
Layer1
100
AcDb2dPolyline
 66
     1
 10
0.0
 20
0.0
 30
0.0
  0
VERTEX
  5
14B4
330
14B3
100
AcDbEntity
  8
Layer1
100
AcDbVertex
100
AcDb2dVertex
 10
88.94232471955792
 20
6.374506771714536
 30
0.0
  0
VERTEX
  5
14B5
330
14B3
100
AcDbEntity
  8
Layer1
100
AcDbVertex
100
AcDb2dVertex
 10
85.5867364423769
 20
6.374506771714536
 30
0.0
  0
SEQEND
  5
14B6
330
14B3
100
AcDbEntity
  8
Layer1
  0
POLYLINE
  5
14B7
330
1F
100
AcDbEntity
  8
Layer1
100
AcDb2dPolyline
 66
     1
 10
0.0
 20
0.0
 30
0.0
  0
VERTEX
  5
14B8
330
14B7
100
AcDbEntity
  8
Layer1
100
AcDbVertex
100
AcDb2dVertex
 10
88.94232471955792
 20
4.204507755058714
 30
0.0
  0
VERTEX
  5
14B9
330
14B7
100
AcDbEntity
  8
Layer1
100
AcDbVertex
100
AcDb2dVertex
 10
85.5867364423769
 20
4.204507755058714
 30
0.0
  0
SEQEND
  5
14BA
330
14B7
100
AcDbEntity
  8
Layer1
  0
POLYLINE
  5
14BB
330
1F
100
AcDbEntity
  8
Layer 1
100
AcDb2dPolyline
 66
     1
 10
0.0
 20
0.0
 30
0.0
  0
VERTEX
  5
14BC
330
14BB
100
AcDbEntity
  8
Layer 1
100
AcDbVertex
100
AcDb2dVertex
 10
86.38363941682351
 20
5.624480068833677
 30
0.0
  0
VERTEX
  5
14BD
330
14BB
100
AcDbEntity
  8
Layer 1
100
AcDbVertex
100
AcDb2dVertex
 10
86.32113772140251
 20
5.624480068833677
 30
0.0
  0
SEQEND
  5
14BE
330
14BB
100
AcDbEntity
  8
Layer 1
  0
SPLINE
  5
14BF
330
1F
100
AcDbEntity
  8
Layer 1
100
AcDbSpline
210
0.0
220
0.0
230
1.0
 70
     8
 71
     3
 72
     8
 73
     4
 74
     0
 42
0.000000001
 43
0.0000000001
 40
0.0
 40
0.0
 40
0.0
 40
0.0
 40
1.0
 40
1.0
 40
1.0
 40
1.0
 10
86.47739280766551
 20
5.531703664346892
 30
0.0
 10
86.47739280766551
 20
5.584021389634458
 30
0.0
 10
86.4349810034663
 20
5.626433617688903
 30
0.0
 10
86.38266285432351
 20
5.626433617688903
 30
0.0
  0
POLYLINE
  5
14C0
330
1F
100
AcDbEntity
  8
Layer 1
100
AcDb2dPolyline
 66
     1
 10
0.0
 20
0.0
 30
0.0
  0
VERTEX
  5
14C1
330
14C0
100
AcDbEntity
  8
Layer 1
100
AcDbVertex
100
AcDb2dVertex
 10
86.32113772140251
 20
5.124462266913099
 30
0.0
  0
VERTEX
  5
14C2
330
14C0
100
AcDbEntity
  8
Layer 1
100
AcDbVertex
100
AcDb2dVertex
 10
86.38363941682351
 20
5.124462266913099
 30
0.0
  0
SEQEND
  5
14C3
330
14C0
100
AcDbEntity
  8
Layer 1
  0
SPLINE
  5
14C4
330
1F
100
AcDbEntity
  8
Layer 1
100
AcDbSpline
210
0.0
220
0.0
230
1.0
 70
     8
 71
     3
 72
     8
 73
     4
 74
     0
 42
0.000000001
 43
0.0000000001
 40
0.0
 40
0.0
 40
0.0
 40
0.0
 40
1.0
 40
1.0
 40
1.0
 40
1.0
 10
86.22543120556051
 20
5.21919222025511
 30
0.0
 10
86.22543120556051
 20
5.166874494967573
 30
0.0
 10
86.2678430097597
 20
5.124462266913099
 30
0.0
 10
86.32016115890251
 20
5.124462266913099
 30
0.0
  0
SPLINE
  5
14C5
330
1F
100
AcDbEntity
  8
Layer 1
100
AcDbSpline
210
0.0
220
0.0
230
1.0
 70
     8
 71
     3
 72
     8
 73
     4
 74
     0
 42
0.000000001
 43
0.0000000001
 40
0.0
 40
0.0
 40
0.0
 40
0.0
 40
1.0
 40
1.0
 40
1.0
 40
1.0
 10
86.38266285432351
 20
5.124462266913099
 30
0.0
 10
86.4349810034663
 20
5.124462266913099
 30
0.0
 10
86.47739280766551
 20
5.166874494967573
 30
0.0
 10
86.47739280766551
 20
5.21919222025511
 30
0.0
  0
POLYLINE
  5
14C6
330
1F
100
AcDbEntity
  8
Layer 1
100
AcDb2dPolyline
 66
     1
 10
0.0
 20
0.0
 30
0.0
  0
VERTEX
  5
14C7
330
14C6
100
AcDbEntity
  8
Layer 1
100
AcDbVertex
100
AcDb2dVertex
 10
86.47739280766551
 20
5.295217483692895
 30
0.0
  0
VERTEX
  5
14C8
330
14C6
100
AcDbEntity
  8
Layer 1
100
AcDbVertex
100
AcDb2dVertex
 10
86.47739280766551
 20
5.530727101846892
 30
0.0
  0
SEQEND
  5
14C9
330
14C6
100
AcDbEntity
  8
Layer 1
  0
POLYLINE
  5
14CA
330
1F
100
AcDbEntity
  8
Layer2
100
AcDb2dPolyline
 66
     1
 10
0.0
 20
0.0
 30
0.0
  0
VERTEX
  5
14CB
330
14CA
100
AcDbEntity
  8
Layer2
100
AcDbVertex
100
AcDb2dVertex
 10
87.8817396975852
 20
4.884219414808058
 30
0.0
  0
VERTEX
  5
14CC
330
14CA
100
AcDbEntity
  8
Layer2
100
AcDbVertex
100
AcDb2dVertex
 10
87.8817396975852
 20
4.983832604505324
 30
0.0
  0
SEQEND
  5
14CD
330
14CA
100
AcDbEntity
  8
Layer2
  0
POLYLINE
  5
14CE
330
1F
100
AcDbEntity
  8
Layer2
100
AcDb2dPolyline
 66
     1
 10
0.0
 20
0.0
 30
0.0
  0
VERTEX
  5
14CF
330
14CE
100
AcDbEntity
  8
Layer2
100
AcDbVertex
100
AcDb2dVertex
 10
87.8817396975852
 20
5.784642252807188
 30
0.0
  0
VERTEX
  5
14D0
330
14CE
100
AcDbEntity
  8
Layer2
100
AcDbVertex
100
AcDb2dVertex
 10
87.8817396975852
 20
5.884255442504454
 30
0.0
  0
SEQEND
  5
14D1
330
14CE
100
AcDbEntity
  8
Layer2
  0
POLYLINE
  5
14D2
330
1F
100
AcDbEntity
  8
Layer2
100
AcDb2dPolyline
 66
     1
 10
0.0
 20
0.0
 30
0.0
  0
VERTEX
  5
14D3
330
14D2
100
AcDbEntity
  8
Layer2
100
AcDbVertex
100
AcDb2dVertex
 10
88.50564210067141
 20
4.884219414808058
 30
0.0
  0
VERTEX
  5
14D4
330
14D2
100
AcDbEntity
  8
Layer2
100
AcDbVertex
100
AcDb2dVertex
 10
88.50564210067141
 20
5.884255442504454
 30
0.0
  0
SEQEND
  5
14D5
330
14D2
100
AcDbEntity
  8
Layer2
  0
POLYLINE
  5
14D6
330
1F
100
AcDbEntity
  8
Layer2
100
AcDb2dPolyline
 66
     1
 10
0.0
 20
0.0
 30
0.0
  0
VERTEX
  5
14D7
330
14D6
100
AcDbEntity
  8
Layer2
100
AcDbVertex
100
AcDb2dVertex
 10
87.8817396975852
 20
4.884219414808058
 30
0.0
  0
VERTEX
  5
14D8
330
14D6
100
AcDbEntity
  8
Layer2
100
AcDbVertex
100
AcDb2dVertex
 10
88.60637535161081
 20
4.884219414808058
 30
0.0
  0
VERTEX
  5
14D9
330
14D6
100
AcDbEntity
  8
Layer2
100
AcDbVertex
100
AcDb2dVertex
 10
88.60637535161081
 20
5.884255442504454
 30
0.0
  0
SEQEND
  5
14DA
330
14D6
100
AcDbEntity
  8
Layer2
  0
POLYLINE
  5
14DB
330
1F
100
AcDbEntity
  8
Layer2
100
AcDb2dPolyline
 66
     1
 10
0.0
 20
0.0
 30
0.0
  0
VERTEX
  5
14DC
330
14DB
100
AcDbEntity
  8
Layer2
100
AcDbVertex
100
AcDb2dVertex
 10
88.50676258576881
 20
4.983832604505324
 30
0.0
  0
VERTEX
  5
14DD
330
14DB
100
AcDbEntity
  8
Layer2
100
AcDbVertex
100
AcDb2dVertex
 10
87.8817396975852
 20
4.983832604505324
 30
0.0
  0
SEQEND
  5
14DE
330
14DB
100
AcDbEntity
  8
Layer2
  0
POLYLINE
  5
14DF
330
1F
100
AcDbEntity
  8
Layer2
100
AcDb2dPolyline
 66
     1
 10
0.0
 20
0.0
 30
0.0
  0
VERTEX
  5
14E0
330
14DF
100
AcDbEntity
  8
Layer2
100
AcDbVertex
100
AcDb2dVertex
 10
87.8817396975852
 20
5.784642252807188
 30
0.0
  0
VERTEX
  5
14E1
330
14DF
100
AcDbEntity
  8
Layer2
100
AcDbVertex
100
AcDb2dVertex
 10
88.50676258576881
 20
5.784642252807188
 30
0.0
  0
SEQEND
  5
14E2
330
14DF
100
AcDbEntity
  8
Layer2
  0
POLYLINE
  5
14E3
330
1F
100
AcDbEntity
  8
Layer2
100
AcDb2dPolyline
 66
     1
 10
0.0
 20
0.0
 30
0.0
  0
VERTEX
  5
14E4
330
14E3
100
AcDbEntity
  8
Layer2
100
AcDbVertex
100
AcDb2dVertex
 10
87.8817396975852
 20
5.884255442504454
 30
0.0
  0
VERTEX
  5
14E5
330
14E3
100
AcDbEntity
  8
Layer2
100
AcDbVertex
100
AcDb2dVertex
 10
88.60637535161081
 20
5.884255442504454
 30
0.0
  0
SEQEND
  5
14E6
330
14E3
100
AcDbEntity
  8
Layer2
  0
POLYLINE
  5
14E7
330
1F
100
AcDbEntity
  8
Layer2
100
AcDb2dPolyline
 66
     1
 10
0.0
 20
0.0
 30
0.0
  0
VERTEX
  5
14E8
330
14E7
100
AcDbEntity
  8
Layer2
100
AcDbVertex
100
AcDb2dVertex
 10
87.9442422407168
 20
5.425254537149627
 30
0.0
  0
VERTEX
  5
14E9
330
14E7
100
AcDbEntity
  8
Layer2
100
AcDbVertex
100
AcDb2dVertex
 10
87.9442422407168
 20
5.33736052130763
 30
0.0
  0
VERTEX
  5
14EA
330
14E7
100
AcDbEntity
  8
Layer2
100
AcDbVertex
100
AcDb2dVertex
 10
88.44426004263731
 20
5.15571353847885
 30
0.0
  0
VERTEX
  5
14EB
330
14E7
100
AcDbEntity
  8
Layer2
100
AcDbVertex
100
AcDb2dVertex
 10
88.44426004263731
 20
5.222122331610365
 30
0.0
  0
VERTEX
  5
14EC
330
14E7
100
AcDbEntity
  8
Layer2
100
AcDbVertex
100
AcDb2dVertex
 10
88.30558308137431
 20
5.27095215203137
 30
0.0
  0
VERTEX
  5
14ED
330
14E7
100
AcDbEntity
  8
Layer2
100
AcDbVertex
100
AcDb2dVertex
 10
88.30558308137431
 20
5.487756656425901
 30
0.0
  0
SEQEND
  5
14EE
330
14E7
100
AcDbEntity
  8
Layer2
  0
POLYLINE
  5
14EF
330
1F
100
AcDbEntity
  8
Layer2
100
AcDb2dPolyline
 66
     1
 10
0.0
 20
0.0
 30
0.0
  0
VERTEX
  5
14F0
330
14EF
100
AcDbEntity
  8
Layer2
100
AcDbVertex
100
AcDb2dVertex
 10
88.2469876359533
 20
5.290483825886625
 30
0.0
  0
VERTEX
  5
14F1
330
14EF
100
AcDbEntity
  8
Layer2
100
AcDbVertex
100
AcDb2dVertex
 10
88.00283768613771
 20
5.378377841728636
 30
0.0
  0
VERTEX
  5
14F2
330
14EF
100
AcDbEntity
  8
Layer2
100
AcDbVertex
100
AcDb2dVertex
 10
88.2469876359533
 20
5.466271433715392
 30
0.0
  0
VERTEX
  5
14F3
330
14EF
100
AcDbEntity
  8
Layer2
100
AcDbVertex
100
AcDb2dVertex
 10
88.2469876359533
 20
5.290483825886625
 30
0.0
  0
SEQEND
  5
14F4
330
14EF
100
AcDbEntity
  8
Layer2
  0
POLYLINE
  5
14F5
330
1F
100
AcDbEntity
  8
Layer2
100
AcDb2dPolyline
 66
     1
 10
0.0
 20
0.0
 30
0.0
  0
VERTEX
  5
14F6
330
14F5
100
AcDbEntity
  8
Layer2
100
AcDbVertex
100
AcDb2dVertex
 10
88.30558308137431
 20
5.487756656425901
 30
0.0
  0
VERTEX
  5
14F7
330
14F5
100
AcDbEntity
  8
Layer2
100
AcDbVertex
100
AcDb2dVertex
 10
88.44426004263731
 20
5.536586476846892
 30
0.0
  0
VERTEX
  5
14F8
330
14F5
100
AcDbEntity
  8
Layer2
100
AcDbVertex
100
AcDb2dVertex
 10
88.44426004263731
 20
5.606901519978408
 30
0.0
  0
VERTEX
  5
14F9
330
14F5
100
AcDbEntity
  8
Layer2
100
AcDbVertex
100
AcDb2dVertex
 10
87.9442422407168
 20
5.425254537149627
 30
0.0
  0
SEQEND
  5
14FA
330
14F5
100
AcDbEntity
  8
Layer2
  0
POLYLINE
  5
14FB
330
1F
100
AcDbEntity
  8
Layer 1
100
AcDb2dPolyline
 66
     1
 10
0.0
 20
0.0
 30
0.0
  0
VERTEX
  5
14FC
330
14FB
100
AcDbEntity
  8
Layer 1
100
AcDbVertex
100
AcDb2dVertex
 10
85.5867364423769
 20
7.571329874099519
 30
0.0
  0
VERTEX
  5
14FD
330
14FB
100
AcDbEntity
  8
Layer 1
100
AcDbVertex
100
AcDb2dVertex
 10
85.5867364423769
 20
3.183673272985169
 30
0.0
  0
SEQEND
  5
14FE
330
14FB
100
AcDbEntity
  8
Layer 1
  0
LINE
  5
1502
330
1F
100
AcDbEntity
  8
Layer2
100
AcDbLine
 10
83.86521521901574
 20
6.157714244793567
 30
0.0
 11
83.70746382707509
 21
6.157714244793567
 31
0.0
  0
LINE
  5
152E
330
1F
100
AcDbEntity
  8
Layer2
100
AcDbLine
 10
82.44521521901574
 20
14.54820615424457
 30
0.0
 11
82.44521521901574
 21
14.39045476230388
 31
0.0
  0
LINE
  5
152F
330
1F
100
AcDbEntity
  8
Layer2
100
AcDbLine
 10
82.44521521901574
 20
7.458110634225065
 30
0.0
 11
82.44521521901574
 21
7.300359242284372
 31
0.0
  0
LINE
  5
1530
330
1F
100
AcDbEntity
  8
Layer2
100
AcDbLine
 10
84.35174660372769
 20
3.840883315782264
 30
0.0
 11
84.37232598467077
 21
3.997286610949672
 31
0.0
  0
LINE
  5
1531
330
1F
100
AcDbEntity
  8
Layer2
100
AcDbLine
 10
83.86521521901574
 20
3.840883315782264
 30
0.0
 11
84.28098836333501
 21
3.840883315782264
 31
0.0
  0
LINE
  5
1535
330
1F
100
AcDbEntity
  8
Layer2
100
AcDbLine
 10
84.83677853160013
 20
7.527125967612577
 30
0.0
 11
84.67902713965947
 21
7.527125967612577
 31
0.0
  0
LINE
  5
156C
330
1F
100
AcDbEntity
  8
Layer2
100
AcDbLine
 10
83.41521521901572
 20
14.54820615424457
 30
0.0
 11
83.41521521901572
 21
14.70595754618518
 31
0.0
  0
LINE
  5
156E
330
1F
100
AcDbEntity
  8
Layer2
100
AcDbLine
 10
82.44521521901574
 20
15.99694558358458
 30
0.0
 11
82.44521521901574
 21
16.15469697552527
 31
0.0
  0
LINE
  5
156F
330
1F
100
AcDbEntity
  8
Layer2
100
AcDbLine
 10
82.44521521901574
 20
16.15469697552527
 30
0.0
 11
82.6029666109564
 21
16.15469697552527
 31
0.0
  0
LINE
  5
1570
330
1F
100
AcDbEntity
  8
Layer2
100
AcDbLine
 10
84.54944824785898
 20
15.11212596761267
 30
0.0
 11
84.52899369439751
 21
15.26854563677837
 31
0.0
  0
LINE
  5
1571
330
1F
100
AcDbEntity
  8
Layer2
100
AcDbLine
 10
84.39169685591833
 20
15.11212596761267
 30
0.0
 11
84.54944824785898
 21
15.11212596761267
 31
0.0
  0
LINE
  5
15BF
330
1F
100
AcDbEntity
  8
0
100
AcDbLine
 10
86.73608392625275
 20
19.28180464054232
 30
0.0
 11
86.73608392625276
 21
20.50937564845493
 31
0.0
  0
LINE
  5
15C0
330
1F
100
AcDbEntity
  8
0
100
AcDbLine
 10
86.73608392625276
 20
20.50937564845493
 30
0.0
 11
88.51072325007097
 21
20.50937564845493
 31
0.0
  0
LINE
  5
15C1
330
1F
100
AcDbEntity
  8
0
100
AcDbLine
 10
86.73608392625275
 20
18.90288482717422
 30
0.0
 11
86.73608392625275
 21
12.19170912052282
 31
0.0
  0
POLYLINE
  5
15C2
330
1F
100
AcDbEntity
  8
0
100
AcDb2dPolyline
 66
     1
 10
0.0
 20
0.0
 30
0.0
  0
VERTEX
  5
1A04
330
15C2
100
AcDbEntity
  8
0
100
AcDbVertex
100
AcDb2dVertex
 10
86.81394933822374
 20
18.90288482717422
 30
0.0
  0
VERTEX
  5
1A05
330
15C2
100
AcDbEntity
  8
0
100
AcDbVertex
100
AcDb2dVertex
 10
87.70608392625275
 20
18.90288482717422
 30
0.0
  0
SEQEND
  5
1A06
330
15C2
100
AcDbEntity
  8
0
  0
LINE
  5
15C6
330
1F
100
AcDbEntity
  8
0
100
AcDbLine
 10
87.70608392625275
 20
18.90288482717422
 30
0.0
 11
87.70608392625275
 21
19.28180464054232
 31
0.0
  0
LINE
  5
15C7
330
1F
100
AcDbEntity
  8
0
100
AcDbLine
 10
88.47733346640447
 20
19.46680464054232
 30
0.0
 11
88.840316955096
 21
19.46680464054232
 31
0.0
  0
LINE
  5
15C8
330
1F
100
AcDbEntity
  8
0
100
AcDbLine
 10
88.47733346640447
 20
19.46680464054232
 30
0.0
 11
88.47733346640447
 21
19.28180464054232
 31
0.0
  0
LINE
  5
15C9
330
1F
100
AcDbEntity
  8
0
100
AcDbLine
 10
88.840316955096
 20
19.46680464054232
 30
0.0
 11
88.70398292157924
 21
20.50937564845493
 31
0.0
  0
LINE
  5
15CA
330
1F
100
AcDbEntity
  8
0
100
AcDbLine
 10
88.23962435154917
 20
14.83002706390003
 30
0.0
 11
88.67813395835609
 21
19.28180464054232
 31
0.0
  0
LINE
  5
15CB
330
1F
100
AcDbEntity
  8
0
100
AcDbLine
 10
88.23962435154917
 20
13.50724580396202
 30
0.0
 11
88.23962435154917
 21
14.83002706390003
 31
0.0
  0
LINE
  5
15CC
330
1F
100
AcDbEntity
  8
0
100
AcDbLine
 10
88.23962435154917
 20
13.33002706390003
 30
0.0
 11
88.38495579050428
 21
12.50417187590084
 31
0.0
  0
LINE
  5
15CD
330
1F
100
AcDbEntity
  8
0
100
AcDbLine
 10
88.38495579050428
 20
12.50417187590084
 30
0.0
 11
88.74387043752435
 21
11.93515455115902
 31
0.0
  0
POLYLINE
  5
15CE
330
1F
100
AcDbEntity
  8
0
100
AcDb2dPolyline
 66
     1
 10
0.0
 20
0.0
 30
0.0
  0
VERTEX
  5
19FE
330
15CE
100
AcDbEntity
  8
0
100
AcDbVertex
100
AcDb2dVertex
 10
87.97608392625276
 20
12.19170912052282
 30
0.0
  0
VERTEX
  5
19FF
330
15CE
100
AcDbEntity
  8
0
100
AcDbVertex
100
AcDb2dVertex
 10
86.73608392625275
 20
12.19170912052282
 30
0.0
  0
SEQEND
  5
1A03
330
15CE
100
AcDbEntity
  8
0
  0
POLYLINE
  5
15D2
330
1F
100
AcDbEntity
  8
0
100
AcDb2dPolyline
 66
     1
 10
0.0
 20
0.0
 30
0.0
  0
VERTEX
  5
15D3
330
15D2
100
AcDbEntity
  8
0
100
AcDbVertex
100
AcDb2dVertex
 10
87.97608392625276
 20
11.81278930715472
 30
0.0
  0
VERTEX
  5
15D4
330
15D2
100
AcDbEntity
  8
0
100
AcDbVertex
100
AcDb2dVertex
 10
87.97608392625276
 20
12.19170912052282
 30
0.0
  0
SEQEND
  5
15D5
330
15D2
100
AcDbEntity
  8
0
  0
POLYLINE
  5
15D6
330
1F
100
AcDbEntity
  8
0
100
AcDb2dPolyline
 66
     1
 10
0.0
 20
0.0
 30
0.0
  0
VERTEX
  5
1A00
330
15D6
100
AcDbEntity
  8
0
100
AcDbVertex
100
AcDb2dVertex
 10
86.73608392625275
 20
11.81278930715472
 30
0.0
  0
VERTEX
  5
1A01
330
15D6
100
AcDbEntity
  8
0
100
AcDbVertex
100
AcDb2dVertex
 10
87.97608392625276
 20
11.81278930715472
 30
0.0
  0
SEQEND
  5
1A02
330
15D6
100
AcDbEntity
  8
0
  0
LINE
  5
15DA
330
1F
100
AcDbEntity
  8
0
100
AcDbLine
 10
88.64261531096471
 20
8.195561988711932
 30
0.0
 11
89.12764723883716
 21
11.88180464054231
 31
0.0
  0
LINE
  5
15DB
330
1F
100
AcDbEntity
  8
0
100
AcDbLine
 10
89.12764723883716
 20
11.88180464054231
 30
0.0
 11
88.84059777190657
 21
11.88180464054231
 31
0.0
  0
ARC
  5
15DC
330
1F
100
AcDbEntity
  8
0
100
AcDbCircle
 10
-88.84059777190657
 20
11.99616650205651
 30
0.0
 40
0.1143618615142543
210
0.0
220
0.0
230
-1.0
100
AcDbArc
 50
270.0
 51
327.7578183626832
  0
LINE
  5
15DD
330
1F
100
AcDbEntity
  8
0
100
AcDbLine
 10
88.15608392625275
 20
10.51239291772332
 30
0.0
 11
86.90923578490779
 21
10.51239291772332
 31
0.0
  0
LINE
  5
15DE
330
1F
100
AcDbEntity
  8
0
100
AcDbLine
 10
86.73608392625275
 20
11.81278930715472
 30
0.0
 11
86.73608392625275
 21
10.51239291772332
 31
0.0
  0
LINE
  5
15DF
330
1F
100
AcDbEntity
  8
0
100
AcDbLine
 10
88.22684216664547
 20
8.195561988711932
 30
0.0
 11
88.64261531096471
 21
8.195561988711932
 31
0.0
  0
POLYLINE
  5
15E0
330
1F
100
AcDbEntity
  8
0
100
AcDb2dPolyline
 66
     1
 10
0.0
 20
0.0
 30
0.0
  0
VERTEX
  5
15E1
330
15E0
100
AcDbEntity
  8
0
100
AcDbVertex
100
AcDb2dVertex
 10
88.15608392625275
 20
10.51239291772332
 30
0.0
  0
VERTEX
  5
15E2
330
15E0
100
AcDbEntity
  8
0
100
AcDbVertex
100
AcDb2dVertex
 10
88.15608392625275
 20
8.195561988711932
 30
0.0
  0
SEQEND
  5
15E3
330
15E0
100
AcDbEntity
  8
0
  0
LINE
  5
160E
330
1F
100
AcDbEntity
  8
0
100
AcDbLine
 10
86.73608392625275
 20
19.28180464054232
 30
0.0
 11
87.70608392625275
 21
19.28180464054232
 31
0.0
  0
LINE
  5
1610
330
1F
100
AcDbEntity
  8
0
100
AcDbLine
 10
88.47733346640447
 20
19.28180464054232
 30
0.0
 11
88.67813395835609
 21
19.28180464054232
 31
0.0
  0
LINE
  5
1611
330
1F
100
AcDbEntity
  8
Layer2
100
AcDbLine
 10
88.3263699216902
 20
19.28180464054232
 30
0.0
 11
87.84116456449809
 21
19.28180464054232
 31
0.0
  0
CIRCLE
  5
1663
330
1F
100
AcDbEntity
  8
0
100
AcDbCircle
 10
88.67813395835609
 20
19.55799607721762
 30
0.0
 40
0.0380551635296476
  0
POLYLINE
  5
18A4
330
1F
100
AcDbEntity
  8
Layer2
100
AcDb2dPolyline
 66
     1
 10
0.0
 20
0.0
 30
0.0
  0
VERTEX
  5
18A5
330
18A4
100
AcDbEntity
  8
Layer2
100
AcDbVertex
100
AcDb2dVertex
 10
83.86521521901574
 20
3.998634707722971
 30
0.0
  0
VERTEX
  5
18A6
330
18A4
100
AcDbEntity
  8
Layer2
100
AcDbVertex
100
AcDb2dVertex
 10
83.86521521901574
 20
3.840883315782264
 30
0.0
  0
SEQEND
  5
18A8
330
18A4
100
AcDbEntity
  8
Layer2
  0
LINE
  5
18A7
330
1F
100
AcDbEntity
  8
Layer2
100
AcDbLine
 10
84.81619915065704
 20
7.370722672445268
 30
0.0
 11
84.83677853160013
 21
7.527125967612577
 31
0.0
  0
LINE
  5
18AA
330
1F
100
AcDbEntity
  8
Layer2
100
AcDbLine
 10
82.6029666109564
 20
6.157714244793567
 30
0.0
 11
82.44521521901574
 21
6.157714244793567
 31
0.0
  0
LINE
  5
18AB
330
1F
100
AcDbEntity
  8
Layer2
100
AcDbLine
 10
82.44521521901574
 20
6.315465636734274
 30
0.0
 11
82.44521521901574
 21
6.157714244793567
 31
0.0
  0
POLYLINE
  5
18AE
330
1F
100
AcDbEntity
  8
Layer2
100
AcDb2dPolyline
 66
     1
 10
0.0
 20
0.0
 30
0.0
  0
VERTEX
  5
18AF
330
18AE
100
AcDbEntity
  8
Layer2
100
AcDbVertex
100
AcDb2dVertex
 10
82.6029666109564
 20
7.837030447593065
 30
0.0
  0
VERTEX
  5
18B0
330
18AE
100
AcDbEntity
  8
Layer2
100
AcDbVertex
100
AcDb2dVertex
 10
82.44521521901574
 20
7.837030447593065
 30
0.0
  0
SEQEND
  5
18B8
330
18AE
100
AcDbEntity
  8
Layer2
  0
POLYLINE
  5
18B3
330
1F
100
AcDbEntity
  8
Layer2
100
AcDb2dPolyline
 66
     1
 10
0.0
 20
0.0
 30
0.0
  0
VERTEX
  5
18B4
330
18B3
100
AcDbEntity
  8
Layer2
100
AcDbVertex
100
AcDb2dVertex
 10
83.52746382707505
 20
7.458110634225065
 30
0.0
  0
VERTEX
  5
18B5
330
18B3
100
AcDbEntity
  8
Layer2
100
AcDbVertex
100
AcDb2dVertex
 10
83.68521521901573
 20
7.458110634225065
 30
0.0
  0
SEQEND
  5
18B6
330
18B3
100
AcDbEntity
  8
Layer2
  0
POLYLINE
  5
18BC
330
1F
100
AcDbEntity
  8
Layer2
100
AcDb2dPolyline
 66
     1
 10
0.0
 20
0.0
 30
0.0
  0
VERTEX
  5
18BD
330
18BC
100
AcDbEntity
  8
Layer2
100
AcDbVertex
100
AcDb2dVertex
 10
83.68521521901573
 20
7.679279055652472
 30
0.0
  0
VERTEX
  5
18BE
330
18BC
100
AcDbEntity
  8
Layer2
100
AcDbVertex
100
AcDb2dVertex
 10
83.68521521901573
 20
7.837030447593065
 30
0.0
  0
SEQEND
  5
18BF
330
18BC
100
AcDbEntity
  8
Layer2
  0
LINE
  5
18C1
330
1F
100
AcDbEntity
  8
Layer2
100
AcDbLine
 10
82.44521521901574
 20
7.994781839533772
 30
0.0
 11
82.44521521901574
 21
7.837030447593065
 31
0.0
  0
POLYLINE
  5
1916
330
1F
100
AcDbEntity
  8
Layer2
100
AcDb2dPolyline
 66
     1
 10
0.0
 20
0.0
 30
0.0
  0
VERTEX
  5
1917
330
1916
100
AcDbEntity
  8
Layer2
100
AcDbVertex
100
AcDb2dVertex
 10
83.25746382707507
 20
14.54820615424457
 30
0.0
  0
VERTEX
  5
1918
330
1916
100
AcDbEntity
  8
Layer2
100
AcDbVertex
100
AcDb2dVertex
 10
83.41521521901572
 20
14.54820615424457
 30
0.0
  0
SEQEND
  5
1919
330
1916
100
AcDbEntity
  8
Layer2
  0
LINE
  5
191B
330
1F
100
AcDbEntity
  8
Layer2
100
AcDbLine
 10
83.41521521901572
 20
14.76937457567197
 30
0.0
 11
83.41521521901572
 21
14.92712596761267
 31
0.0
  0
LINE
  5
191C
330
1F
100
AcDbEntity
  8
Layer2
100
AcDbLine
 10
84.25536282240157
 20
16.15469697552527
 30
0.0
 11
84.41311421434222
 21
16.15469697552527
 31
0.0
  0
LINE
  5
191D
330
1F
100
AcDbEntity
  8
Layer2
100
AcDbLine
 10
84.43356876780369
 20
15.99827730635957
 30
0.0
 11
84.41311421434222
 21
16.15469697552527
 31
0.0
  0
LINE
  5
191E
330
1F
100
AcDbEntity
  8
Layer2
100
AcDbLine
 10
79.49746382707502
 20
6.157714244793567
 30
0.0
 11
79.6552152190157
 21
6.157714244793567
 31
0.0
  0
LINE
  5
191F
330
1F
100
AcDbEntity
  8
Layer2
100
AcDbLine
 10
79.6552152190157
 20
6.315465636734274
 30
0.0
 11
79.6552152190157
 21
6.157714244793567
 31
0.0
  0
LINE
  5
1920
330
1F
100
AcDbEntity
  8
Layer2
100
AcDbLine
 10
79.6552152190157
 20
7.458110634225065
 30
0.0
 11
79.6552152190157
 21
7.300359242284372
 31
0.0
  0
POLYLINE
  5
1921
330
1F
100
AcDbEntity
  8
Layer2
100
AcDb2dPolyline
 66
     1
 10
0.0
 20
0.0
 30
0.0
  0
VERTEX
  5
1922
330
1921
100
AcDbEntity
  8
Layer2
100
AcDbVertex
100
AcDb2dVertex
 10
79.6552152190157
 20
7.458110634225065
 30
0.0
  0
VERTEX
  5
1923
330
1921
100
AcDbEntity
  8
Layer2
100
AcDbVertex
100
AcDb2dVertex
 10
79.49746382707502
 20
7.458110634225065
 30
0.0
  0
SEQEND
  5
1924
330
1921
100
AcDbEntity
  8
Layer2
  0
POLYLINE
  5
1925
330
1F
100
AcDbEntity
  8
Layer2
100
AcDb2dPolyline
 66
     1
 10
0.0
 20
0.0
 30
0.0
  0
VERTEX
  5
1926
330
1925
100
AcDbEntity
  8
Layer2
100
AcDbVertex
100
AcDb2dVertex
 10
79.49746382707502
 20
7.837030447593065
 30
0.0
  0
VERTEX
  5
1927
330
1925
100
AcDbEntity
  8
Layer2
100
AcDbVertex
100
AcDb2dVertex
 10
79.6552152190157
 20
7.837030447593065
 30
0.0
  0
SEQEND
  5
1928
330
1925
100
AcDbEntity
  8
Layer2
  0
LINE
  5
1929
330
1F
100
AcDbEntity
  8
Layer2
100
AcDbLine
 10
79.6552152190157
 20
7.994781839533772
 30
0.0
 11
79.6552152190157
 21
7.837030447593065
 31
0.0
  0
POLYLINE
  5
192A
330
1F
100
AcDbEntity
  8
Layer2
100
AcDb2dPolyline
 66
     1
 10
0.0
 20
0.0
 30
0.0
  0
VERTEX
  5
192B
330
192A
100
AcDbEntity
  8
Layer2
100
AcDbVertex
100
AcDb2dVertex
 10
78.57296661095637
 20
7.458110634225065
 30
0.0
  0
VERTEX
  5
192C
330
192A
100
AcDbEntity
  8
Layer2
100
AcDbVertex
100
AcDb2dVertex
 10
78.41521521901572
 20
7.458110634225065
 30
0.0
  0
SEQEND
  5
192D
330
192A
100
AcDbEntity
  8
Layer2
  0
POLYLINE
  5
192E
330
1F
100
AcDbEntity
  8
Layer2
100
AcDb2dPolyline
 66
     1
 10
0.0
 20
0.0
 30
0.0
  0
VERTEX
  5
192F
330
192E
100
AcDbEntity
  8
Layer2
100
AcDbVertex
100
AcDb2dVertex
 10
78.41521521901572
 20
7.837030447593065
 30
0.0
  0
VERTEX
  5
1930
330
192E
100
AcDbEntity
  8
Layer2
100
AcDbVertex
100
AcDb2dVertex
 10
78.57296661095637
 20
7.837030447593065
 30
0.0
  0
SEQEND
  5
1931
330
192E
100
AcDbEntity
  8
Layer2
  0
POLYLINE
  5
1932
330
1F
100
AcDbEntity
  8
Layer2
100
AcDb2dPolyline
 66
     1
 10
0.0
 20
0.0
 30
0.0
  0
VERTEX
  5
1933
330
1932
100
AcDbEntity
  8
Layer2
100
AcDbVertex
100
AcDb2dVertex
 10
78.41521521901572
 20
7.679279055652472
 30
0.0
  0
VERTEX
  5
1934
330
1932
100
AcDbEntity
  8
Layer2
100
AcDbVertex
100
AcDb2dVertex
 10
78.41521521901572
 20
7.837030447593065
 30
0.0
  0
SEQEND
  5
1935
330
1932
100
AcDbEntity
  8
Layer2
  0
POLYLINE
  5
1936
330
1F
100
AcDbEntity
  8
Layer2
100
AcDb2dPolyline
 66
     1
 10
0.0
 20
0.0
 30
0.0
  0
VERTEX
  5
1937
330
1936
100
AcDbEntity
  8
Layer2
100
AcDbVertex
100
AcDb2dVertex
 10
78.41521521901572
 20
7.458110634225065
 30
0.0
  0
VERTEX
  5
1938
330
1936
100
AcDbEntity
  8
Layer2
100
AcDbVertex
100
AcDb2dVertex
 10
78.41521521901572
 20
7.615862026165672
 30
0.0
  0
SEQEND
  5
1939
330
1936
100
AcDbEntity
  8
Layer2
  0
LINE
  5
193A
330
1F
100
AcDbEntity
  8
Layer2
100
AcDbLine
 10
77.28423128737438
 20
7.370722672445268
 30
0.0
 11
77.2636519064313
 21
7.527125967612577
 31
0.0
  0
LINE
  5
193B
330
1F
100
AcDbEntity
  8
Layer2
100
AcDbLine
 10
77.2636519064313
 20
7.527125967612577
 30
0.0
 11
77.42140329837198
 21
7.527125967612577
 31
0.0
  0
POLYLINE
  5
193C
330
1F
100
AcDbEntity
  8
Layer2
100
AcDb2dPolyline
 66
     1
 10
0.0
 20
0.0
 30
0.0
  0
VERTEX
  5
193D
330
193C
100
AcDbEntity
  8
Layer2
100
AcDbVertex
100
AcDb2dVertex
 10
78.2352152190157
 20
6.157714244793567
 30
0.0
  0
VERTEX
  5
193E
330
193C
100
AcDbEntity
  8
Layer2
100
AcDbVertex
100
AcDb2dVertex
 10
78.2352152190157
 20
5.999962852852974
 30
0.0
  0
SEQEND
  5
193F
330
193C
100
AcDbEntity
  8
Layer2
  0
LINE
  5
1940
330
1F
100
AcDbEntity
  8
Layer2
100
AcDbLine
 10
78.2352152190157
 20
6.157714244793567
 30
0.0
 11
78.39296661095635
 21
6.157714244793567
 31
0.0
  0
LINE
  5
1941
330
1F
100
AcDbEntity
  8
Layer2
100
AcDbLine
 10
78.16445697862298
 20
3.840883315782264
 30
0.0
 11
77.74868383430373
 21
3.840883315782264
 31
0.0
  0
LINE
  5
1942
330
1F
100
AcDbEntity
  8
Layer2
100
AcDbLine
 10
77.74868383430373
 20
3.840883315782264
 30
0.0
 11
77.72810445336067
 21
3.997286610949672
 31
0.0
  0
POLYLINE
  5
1943
330
1F
100
AcDbEntity
  8
Layer2
100
AcDb2dPolyline
 66
     1
 10
0.0
 20
0.0
 30
0.0
  0
VERTEX
  5
1944
330
1943
100
AcDbEntity
  8
Layer2
100
AcDbVertex
100
AcDb2dVertex
 10
78.2352152190157
 20
3.998634707722971
 30
0.0
  0
VERTEX
  5
1945
330
1943
100
AcDbEntity
  8
Layer2
100
AcDbVertex
100
AcDb2dVertex
 10
78.2352152190157
 20
3.840883315782264
 30
0.0
  0
SEQEND
  5
1946
330
1943
100
AcDbEntity
  8
Layer2
  0
LINE
  5
1947
330
1F
100
AcDbEntity
  8
Layer2
100
AcDbLine
 10
79.6552152190157
 20
14.54820615424457
 30
0.0
 11
79.6552152190157
 21
14.39045476230388
 31
0.0
  0
POLYLINE
  5
1948
330
1F
100
AcDbEntity
  8
Layer2
100
AcDb2dPolyline
 66
     1
 10
0.0
 20
0.0
 30
0.0
  0
VERTEX
  5
1949
330
1948
100
AcDbEntity
  8
Layer2
100
AcDbVertex
100
AcDb2dVertex
 10
78.84296661095638
 20
14.54820615424457
 30
0.0
  0
VERTEX
  5
194A
330
1948
100
AcDbEntity
  8
Layer2
100
AcDbVertex
100
AcDb2dVertex
 10
78.6852152190157
 20
14.54820615424457
 30
0.0
  0
SEQEND
  5
194B
330
1948
100
AcDbEntity
  8
Layer2
  0
POLYLINE
  5
194C
330
1F
100
AcDbEntity
  8
Layer2
100
AcDb2dPolyline
 66
     1
 10
0.0
 20
0.0
 30
0.0
  0
VERTEX
  5
194D
330
194C
100
AcDbEntity
  8
Layer2
100
AcDbVertex
100
AcDb2dVertex
 10
79.6552152190157
 20
14.54820615424457
 30
0.0
  0
VERTEX
  5
194E
330
194C
100
AcDbEntity
  8
Layer2
100
AcDbVertex
100
AcDb2dVertex
 10
79.49746382707502
 20
14.54820615424457
 30
0.0
  0
SEQEND
  5
194F
330
194C
100
AcDbEntity
  8
Layer2
  0
LINE
  5
1950
330
1F
100
AcDbEntity
  8
Layer2
100
AcDbLine
 10
78.6852152190157
 20
14.76937457567197
 30
0.0
 11
78.6852152190157
 21
14.92712596761267
 31
0.0
  0
LINE
  5
1951
330
1F
100
AcDbEntity
  8
Layer2
100
AcDbLine
 10
78.6852152190157
 20
14.54820615424457
 30
0.0
 11
78.6852152190157
 21
14.70595754618518
 31
0.0
  0
LINE
  5
1952
330
1F
100
AcDbEntity
  8
Layer2
100
AcDbLine
 10
79.6552152190157
 20
15.99694558358458
 30
0.0
 11
79.6552152190157
 21
16.15469697552527
 31
0.0
  0
LINE
  5
1953
330
1F
100
AcDbEntity
  8
Layer2
100
AcDbLine
 10
79.6552152190157
 20
16.15469697552527
 30
0.0
 11
79.49746382707502
 21
16.15469697552527
 31
0.0
  0
LINE
  5
1954
330
1F
100
AcDbEntity
  8
Layer2
100
AcDbLine
 10
77.55098219017246
 20
15.11212596761267
 30
0.0
 11
77.57143674363391
 21
15.26854563677837
 31
0.0
  0
LINE
  5
1955
330
1F
100
AcDbEntity
  8
Layer2
100
AcDbLine
 10
77.70873358211313
 20
15.11212596761267
 30
0.0
 11
77.55098219017246
 21
15.11212596761267
 31
0.0
  0
LINE
  5
1956
330
1F
100
AcDbEntity
  8
Layer2
100
AcDbLine
 10
77.84506761562989
 20
16.15469697552527
 30
0.0
 11
77.68731622368921
 21
16.15469697552527
 31
0.0
  0
LINE
  5
1957
330
1F
100
AcDbEntity
  8
Layer2
100
AcDbLine
 10
77.66686167022775
 20
15.99827730635957
 30
0.0
 11
77.68731622368921
 21
16.15469697552527
 31
0.0
  0
LINE
  5
195C
330
1F
100
AcDbEntity
  8
Layer1
100
AcDbLine
 10
82.07521521901572
 20
7.458110634225065
 30
0.0
 11
80.0252152190157
 21
7.458110634225065
 31
0.0
  0
LINE
  5
1984
330
1F
100
AcDbEntity
  8
Layer1
100
AcDbLine
 10
82.07521521901572
 20
7.837030447593065
 30
0.0
 11
80.0252152190157
 21
7.837030447593065
 31
0.0
  0
LINE
  5
19AD
330
1F
100
AcDbEntity
  8
Layer1
100
AcDbLine
 10
82.07521521901572
 20
14.54820615424457
 30
0.0
 11
80.0252152190157
 21
14.54820615424457
 31
0.0
  0
LINE
  5
19FC
330
1F
100
AcDbEntity
  8
Layer1
100
AcDbLine
 10
82.07521521901572
 20
14.92712596761267
 30
0.0
 11
80.0252152190157
 21
14.92712596761267
 31
0.0
  0
LINE
  5
1A07
330
1F
100
AcDbEntity
  8
0
100
AcDbLine
 10
77.69453111087313
 20
28.88736856558747
 30
0.0
 11
77.69453111087313
 21
30.11493957350008
 31
0.0
  0
LINE
  5
1A08
330
1F
100
AcDbEntity
  8
0
100
AcDbLine
 10
77.69453111087313
 20
30.11493957350008
 30
0.0
 11
75.83450296090155
 21
30.11493957350008
 31
0.0
  0
LINE
  5
1A09
330
1F
100
AcDbEntity
  8
0
100
AcDbLine
 10
77.69453111087313
 20
28.50844875221939
 30
0.0
 11
77.69453111087313
 21
21.79727304556798
 31
0.0
  0
LINE
  5
1A0A
330
1F
100
AcDbEntity
  8
0
100
AcDbLine
 10
76.72453111087313
 20
28.50844875221939
 30
0.0
 11
76.72453111087313
 21
28.88736856558747
 31
0.0
  0
LINE
  5
1A0B
330
1F
100
AcDbEntity
  8
0
100
AcDbLine
 10
75.9532815707214
 20
29.07236856558748
 30
0.0
 11
75.59029808202988
 21
29.07236856558748
 31
0.0
  0
LINE
  5
1A0C
330
1F
100
AcDbEntity
  8
0
100
AcDbLine
 10
75.9532815707214
 20
29.07236856558748
 30
0.0
 11
75.9532815707214
 21
28.88736856558747
 31
0.0
  0
LINE
  5
1A0D
330
1F
100
AcDbEntity
  8
0
100
AcDbLine
 10
75.59029808202988
 20
29.07236856558748
 30
0.0
 11
75.72663211554664
 21
30.11493957350008
 31
0.0
  0
LINE
  5
1A0E
330
1F
100
AcDbEntity
  8
0
100
AcDbLine
 10
76.19099068557671
 20
24.43559098894517
 30
0.0
 11
75.75248107876982
 21
28.88736856558747
 31
0.0
  0
LINE
  5
1A0F
330
1F
100
AcDbEntity
  8
0
100
AcDbLine
 10
76.19099068557671
 20
23.09410890498216
 30
0.0
 11
76.19099068557671
 21
24.43559098894517
 31
0.0
  0
LINE
  5
1A10
330
1F
100
AcDbEntity
  8
0
100
AcDbLine
 10
76.19099068557671
 20
22.93559098894517
 30
0.0
 11
76.04565924662163
 21
22.10973580094597
 31
0.0
  0
LINE
  5
1A11
330
1F
100
AcDbEntity
  8
0
100
AcDbLine
 10
76.04565924662163
 20
22.10973580094597
 30
0.0
 11
75.68674459960152
 21
21.54071847620418
 31
0.0
  0
POLYLINE
  5
1A12
330
1F
100
AcDbEntity
  8
0
100
AcDb2dPolyline
 66
     1
 10
0.0
 20
0.0
 30
0.0
  0
VERTEX
  5
1A13
330
1A12
100
AcDbEntity
  8
0
100
AcDbVertex
100
AcDb2dVertex
 10
76.45453111087315
 20
21.41835323219988
 30
0.0
  0
VERTEX
  5
1A14
330
1A12
100
AcDbEntity
  8
0
100
AcDbVertex
100
AcDb2dVertex
 10
76.45453111087315
 20
21.79727304556798
 30
0.0
  0
SEQEND
  5
1A15
330
1A12
100
AcDbEntity
  8
0
  0
LINE
  5
1A16
330
1F
100
AcDbEntity
  8
0
100
AcDbLine
 10
75.78799972616116
 20
17.80112591375708
 30
0.0
 11
75.30296779828873
 21
21.48736856558747
 31
0.0
  0
LINE
  5
1A17
330
1F
100
AcDbEntity
  8
0
100
AcDbLine
 10
75.30296779828873
 20
21.48736856558747
 30
0.0
 11
75.5900172652193
 21
21.48736856558747
 31
0.0
  0
LINE
  5
1A18
330
1F
100
AcDbEntity
  8
0
100
AcDbLine
 10
76.27453111087313
 20
20.11795684276846
 30
0.0
 11
77.49032388786208
 21
20.11795684276846
 31
0.0
  0
LINE
  5
1A19
330
1F
100
AcDbEntity
  8
0
100
AcDbLine
 10
77.69453111087313
 20
21.41835323219988
 30
0.0
 11
77.69453111087313
 21
20.11795684276846
 31
0.0
  0
LINE
  5
1A1A
330
1F
100
AcDbEntity
  8
0
100
AcDbLine
 10
76.18713665634996
 20
17.80112591375708
 30
0.0
 11
75.78799972616116
 21
17.80112591375708
 31
0.0
  0
POLYLINE
  5
1A1B
330
1F
100
AcDbEntity
  8
0
100
AcDb2dPolyline
 66
     1
 10
0.0
 20
0.0
 30
0.0
  0
VERTEX
  5
1A1C
330
1A1B
100
AcDbEntity
  8
0
100
AcDbVertex
100
AcDb2dVertex
 10
76.27453111087313
 20
20.11795684276846
 30
0.0
  0
VERTEX
  5
1A1D
330
1A1B
100
AcDbEntity
  8
0
100
AcDbVertex
100
AcDb2dVertex
 10
76.27453111087313
 20
17.80112591375708
 30
0.0
  0
SEQEND
  5
1A1E
330
1A1B
100
AcDbEntity
  8
0
  0
ARC
  5
1A1F
330
1F
100
AcDbEntity
  8
0
100
AcDbCircle
 10
-75.5900172652193
 20
21.60173042710167
 30
0.0
 40
0.1143618615142543
210
0.0
220
0.0
230
-1.0
100
AcDbArc
 50
212.2421816373032
 51
270.0
  0
LINE
  5
1A20
330
1F
100
AcDbEntity
  8
0
100
AcDbLine
 10
75.9532815707214
 20
28.88736856558747
 30
0.0
 11
75.75248107876982
 21
28.88736856558747
 31
0.0
  0
LINE
  5
1A21
330
1F
100
AcDbEntity
  8
Layer2
100
AcDbLine
 10
76.09569352031087
 20
28.88736856558747
 30
0.0
 11
76.56306044525329
 21
28.88736856558747
 31
0.0
  0
CIRCLE
  5
1A22
330
1F
100
AcDbEntity
  8
0
100
AcDbCircle
 10
75.75248107876982
 20
29.16356000226274
 30
0.0
 40
0.0380551635296476
  0
POLYLINE
  5
1A23
330
1F
100
AcDbEntity
  8
0
100
AcDb2dPolyline
 66
     1
 10
0.0
 20
0.0
 30
0.0
  0
VERTEX
  5
1A24
330
1A23
100
AcDbEntity
  8
0
100
AcDbVertex
100
AcDb2dVertex
 10
77.69453111087313
 20
21.41835323219988
 30
0.0
  0
VERTEX
  5
1A25
330
1A23
100
AcDbEntity
  8
0
100
AcDbVertex
100
AcDb2dVertex
 10
76.45453111087315
 20
21.41835323219988
 30
0.0
  0
SEQEND
  5
1A26
330
1A23
100
AcDbEntity
  8
0
  0
POLYLINE
  5
1A27
330
1F
100
AcDbEntity
  8
0
100
AcDb2dPolyline
 66
     1
 10
0.0
 20
0.0
 30
0.0
  0
VERTEX
  5
1A28
330
1A27
100
AcDbEntity
  8
0
100
AcDbVertex
100
AcDb2dVertex
 10
76.45453111087315
 20
21.79727304556798
 30
0.0
  0
VERTEX
  5
1A29
330
1A27
100
AcDbEntity
  8
0
100
AcDbVertex
100
AcDb2dVertex
 10
77.69453111087313
 20
21.79727304556798
 30
0.0
  0
SEQEND
  5
1A2A
330
1A27
100
AcDbEntity
  8
0
  0
POLYLINE
  5
1A2B
330
1F
100
AcDbEntity
  8
0
100
AcDb2dPolyline
 66
     1
 10
0.0
 20
0.0
 30
0.0
  0
VERTEX
  5
1A2C
330
1A2B
100
AcDbEntity
  8
0
100
AcDbVertex
100
AcDb2dVertex
 10
77.59540977836258
 20
28.50844875221939
 30
0.0
  0
VERTEX
  5
1A2D
330
1A2B
100
AcDbEntity
  8
0
100
AcDbVertex
100
AcDb2dVertex
 10
76.72453111087313
 20
28.50844875221939
 30
0.0
  0
SEQEND
  5
1A2E
330
1A2B
100
AcDbEntity
  8
0
  0
LINE
  5
1A2F
330
1F
100
AcDbEntity
  8
0
100
AcDbLine
 10
77.69453111087313
 20
28.88736856558747
 30
0.0
 11
76.72453111087313
 21
28.88736856558747
 31
0.0
  0
LINE
  5
1A5B
330
1F
100
AcDbEntity
  8
Layer2
100
AcDbLine
 10
94.09498804319821
 20
30.80450055547325
 30
0.0
 11
74.09498804319816
 21
30.80450055547325
 31
0.0
  0
LINE
  5
1A5C
330
1F
100
AcDbEntity
  8
Layer2
100
AcDbLine
 10
74.09498804319816
 20
30.80450055547325
 30
0.0
 11
74.09498804319816
 21
0.8045005554732683
 31
0.0
  0
LINE
  5
1A5D
330
1F
100
AcDbEntity
  8
Layer2
100
AcDbLine
 10
94.09498804319816
 20
0.8045005554732683
 30
0.0
 11
94.09498804319821
 21
30.80450055547325
 31
0.0
  0
LINE
  5
1A5E
330
1F
100
AcDbEntity
  8
Layer2
100
AcDbLine
 10
74.09498804319816
 20
0.8045005554732683
 30
0.0
 11
94.09498804319816
 21
0.8045005554732683
 31
0.0
  0
LINE
  5
1B6E
330
1F
100
AcDbEntity
  8
Layer3
100
AcDbLine
 10
89.03797832254989
 20
30.06349844536883
 30
0.0
 11
87.98200919391455
 21
26.44883488965562
 31
0.0
  0
LINE
  5
1B6F
330
1F
100
AcDbEntity
  8
Layer3
100
AcDbLine
 10
83.50702534240513
 20
27.16893024203339
 30
0.0
 11
89.08508103902123
 21
30.22473466713595
 31
0.0
  0
LINE
  5
1B70
330
1F
100
AcDbEntity
  8
Layer3
100
AcDbLine
 10
87.12561659553944
 20
26.11181369617393
 30
0.0
 11
83.70347878877247
 21
27.11153934758901
 31
0.0
  0
LINE
  5
1B71
330
1F
100
AcDbEntity
  8
Layer3
100
AcDbLine
 10
87.98200919391455
 20
26.44883488965562
 30
0.0
 11
87.28292511988552
 21
26.06585839692676
 31
0.0
  0
POLYLINE
  5
1BAE
330
1F
100
AcDbEntity
  8
Layer 1
100
AcDb2dPolyline
 66
     1
 10
0.0
 20
0.0
 30
0.0
  0
VERTEX
  5
1BC0
330
1BAE
100
AcDbEntity
  8
Layer 1
100
AcDbVertex
100
AcDb2dVertex
 10
31.64705870129697
 20
14.85567040387978
 30
0.0
  0
VERTEX
  5
1BC1
330
1BAE
100
AcDbEntity
  8
Layer 1
100
AcDbVertex
100
AcDb2dVertex
 10
31.46736611514896
 20
14.85567040387978
 30
0.0
  0
SEQEND
  5
1BC2
330
1BAE
100
AcDbEntity
  8
Layer 1
  0
POLYLINE
  5
1BB2
330
1F
100
AcDbEntity
  8
Layer 1
100
AcDb2dPolyline
 66
     1
 10
0.0
 20
0.0
 30
0.0
  0
VERTEX
  5
1BBE
330
1BB2
100
AcDbEntity
  8
Layer 1
100
AcDbVertex
100
AcDb2dVertex
 10
31.64705870129697
 20
14.60566192693464
 30
0.0
  0
VERTEX
  5
1BBF
330
1BB2
100
AcDbEntity
  8
Layer 1
100
AcDbVertex
100
AcDb2dVertex
 10
31.46736611514896
 20
14.60566192693464
 30
0.0
  0
SEQEND
  5
1BC3
330
1BB2
100
AcDbEntity
  8
Layer 1
  0
ARC
  5
1BC4
330
1F
100
AcDbEntity
  8
0
100
AcDbCircle
 10
31.64705870129697
 20
14.73066616540721
 30
0.0
 40
0.1250042384725703
100
AcDbArc
 50
270.0
 51
90.0
  0
POLYLINE
  5
1BF4
330
1F
100
AcDbEntity
  8
Layer 1
100
AcDb2dPolyline
 66
     1
 10
0.0
 20
0.0
 30
0.0
  0
VERTEX
  5
1BF5
330
1BF4
100
AcDbEntity
  8
Layer 1
100
AcDbVertex
100
AcDb2dVertex
 10
31.64705870129697
 20
22.85567040387978
 30
0.0
  0
VERTEX
  5
1BF6
330
1BF4
100
AcDbEntity
  8
Layer 1
100
AcDbVertex
100
AcDb2dVertex
 10
31.46736611514896
 20
22.85567040387978
 30
0.0
  0
SEQEND
  5
1BF7
330
1BF4
100
AcDbEntity
  8
Layer 1
  0
POLYLINE
  5
1BF8
330
1F
100
AcDbEntity
  8
Layer 1
100
AcDb2dPolyline
 66
     1
 10
0.0
 20
0.0
 30
0.0
  0
VERTEX
  5
1BF9
330
1BF8
100
AcDbEntity
  8
Layer 1
100
AcDbVertex
100
AcDb2dVertex
 10
31.64705870129697
 20
22.60566192693464
 30
0.0
  0
VERTEX
  5
1BFA
330
1BF8
100
AcDbEntity
  8
Layer 1
100
AcDbVertex
100
AcDb2dVertex
 10
31.46736611514896
 20
22.60566192693464
 30
0.0
  0
SEQEND
  5
1BFB
330
1BF8
100
AcDbEntity
  8
Layer 1
  0
ARC
  5
1BFC
330
1F
100
AcDbEntity
  8
0
100
AcDbCircle
 10
31.64705870129697
 20
22.73066616540721
 30
0.0
 40
0.1250042384725703
100
AcDbArc
 50
270.0
 51
90.0
  0
LINE
  5
1C6F
330
1F
100
AcDbEntity
  8
0
100
AcDbLine
 10
31.46736611514896
 20
14.60566192693464
 30
0.0
 11
31.46736611514896
 21
9.502521129662437
 31
0.0
  0
LINE
  5
1C70
330
1F
100
AcDbEntity
  8
0
100
AcDbLine
 10
31.46736611514896
 20
22.60566192693464
 30
0.0
 11
31.46736611514896
 21
15.05667757618239
 31
0.0
  0
ARC
  5
1DFB
330
1F
100
AcDbEntity
  8
0
100
AcDbCircle
 10
60.06145887654819
 20
23.53498602948745
 30
0.0
 40
0.1249999999999998
100
AcDbArc
 50
90.0
 51
132.5104470780007
  0
ARC
  5
1DFC
330
1F
100
AcDbEntity
  8
0
100
AcDbCircle
 10
61.50966749936412
 20
23.53498602948745
 30
0.0
 40
0.1249999999999998
100
AcDbArc
 50
47.48955292199935
 51
90.0
  0
LINE
  5
1E3E
330
1F
100
AcDbEntity
  8
0
100
AcDbLine
 10
38.30854611606421
 20
2.743236681789824
 30
0.0
 11
40.19939099304193
 21
2.743236681789824
 31
0.0
  0
LINE
  5
1E3F
330
1F
100
AcDbEntity
  8
Layer1
100
AcDbLine
 10
43.69939099304193
 20
3.270522562836305
 30
0.0
 11
43.69939099304193
 21
6.708138361039005
 31
0.0
  0
LINE
  5
1E40
330
1F
100
AcDbEntity
  8
0
100
AcDbLine
 10
38.10178229351865
 20
3.790219986775867
 30
0.0
 11
38.10178229351865
 21
2.743236681789824
 31
0.0
  0
LINE
  5
1E41
330
1F
100
AcDbEntity
  8
0
100
AcDbLine
 10
43.69939099304193
 20
2.743236681789824
 30
0.0
 11
43.69939099304193
 21
3.270522562836305
 31
0.0
  0
LINE
  5
1E42
330
1F
100
AcDbEntity
  8
0
100
AcDbLine
 10
40.19939099304193
 20
2.743236681789824
 30
0.0
 11
40.19939099304193
 21
2.558236681789822
 31
0.0
  0
LINE
  5
1E43
330
1F
100
AcDbEntity
  8
0
100
AcDbLine
 10
41.19939099304193
 20
2.743236681789824
 30
0.0
 11
41.19939099304193
 21
2.558236681789822
 31
0.0
  0
LINE
  5
1E44
330
1F
100
AcDbEntity
  8
0
100
AcDbLine
 10
40.19939099304193
 20
2.558236681789822
 30
0.0
 11
41.19939099304193
 21
2.558236681789822
 31
0.0
  0
LINE
  5
1E45
330
1F
100
AcDbEntity
  8
0
100
AcDbLine
 10
41.19939099304193
 20
2.743236681789824
 30
0.0
 11
43.54546432499905
 21
2.743236681789824
 31
0.0
  0
LINE
  5
1E46
330
1F
100
AcDbEntity
  8
0
100
AcDbLine
 10
40.69939099304193
 20
6.243236681789824
 30
0.0
 11
42.25167828553393
 21
7.709118223008772
 31
0.0
  0
LINE
  5
1E47
330
1F
100
AcDbEntity
  8
0
100
AcDbLine
 10
38.10178229351865
 20
3.790219986775867
 30
0.0
 11
40.66222381700672
 21
6.208138361039005
 31
0.0
  0
CIRCLE
  5
1E48
330
1F
100
AcDbEntity
  8
0
100
AcDbCircle
 10
42.69939099304193
 20
5.705273536644256
 30
0.0
 40
0.0532066780073078
  0
LINE
  5
1E49
330
1F
100
AcDbEntity
  8
0
100
AcDbLine
 10
44.11588070242979
 20
3.663356637472134
 30
0.0
 11
45.16128967010442
 21
3.663356637472134
 31
0.0
  0
LINE
  5
1E4A
330
1F
100
AcDbEntity
  8
0
100
AcDbLine
 10
47.52218237974853
 20
3.438970861812834
 30
0.0
 11
45.67879570524195
 21
8.411684980766339
 31
0.0
  0
LINE
  5
1E4B
330
1F
100
AcDbEntity
  8
0
100
AcDbLine
 10
43.21655984736901
 20
8.493236681789824
 30
0.0
 11
45.39072585367509
 21
8.493236681789824
 31
0.0
  0
LINE
  5
1E4C
330
1F
100
AcDbEntity
  8
0
100
AcDbLine
 10
42.25167828553388
 20
7.709118223008687
 30
0.0
 11
43.04588671004342
 21
8.459118223008758
 31
0.0
  0
ARC
  5
1E4D
330
1F
100
AcDbEntity
  8
0
100
AcDbCircle
 10
45.56158971001966
 20
8.368236681789824
 30
0.0
 40
0.1249999999999999
100
AcDbArc
 50
20.33975892750625
 51
90.0
  0
ARC
  5
1E4E
330
1F
100
AcDbEntity
  8
0
100
AcDbCircle
 10
43.13170946614966
 20
8.368236681789824
 30
0.0
 40
0.1250000000000001
100
AcDbArc
 50
90.0
 51
133.3601536907116
  0
LINE
  5
1E4F
330
1F
100
AcDbEntity
  8
0
100
AcDbLine
 10
43.69939099304193
 20
6.708138361039005
 30
0.0
 11
41.19169610001299
 21
6.708138361039005
 31
0.0
  0
ARC
  5
1E50
330
1F
100
AcDbEntity
  8
0
100
AcDbCircle
 10
47.40497638452624
 20
3.395522562836305
 30
0.0
 40
0.1250000000000001
100
AcDbArc
 50
269.9999999999935
 51
20.33975892751481
  0
LINE
  5
1E51
330
1F
100
AcDbEntity
  8
0
100
AcDbLine
 10
47.26504730385233
 20
3.270522562836305
 30
0.0
 11
43.69939099304193
 21
3.270522562836305
 31
0.0
  0
LINE
  5
1E53
330
1F
100
AcDbEntity
  8
0
100
AcDbLine
 10
75.66182039786331
 20
8.460289588526377
 30
0.0
 11
74.71637684362963
 21
8.335889120864067
 31
0.0
  0
LINE
  5
1E57
330
1F
100
AcDbEntity
  8
0
100
AcDbLine
 10
91.80808450009637
 20
30.50548488008342
 30
0.0
 11
90.30808450009637
 21
30.50548488008342
 31
0.0
  0
LINE
  5
1E58
330
1F
100
AcDbEntity
  8
0
100
AcDbLine
 10
91.4769120928848
 20
28.53304393520153
 30
0.0
 11
90.65014043934151
 21
28.53304393520153
 31
0.0
  0
LINE
  5
1E59
330
1F
100
AcDbEntity
  8
0
100
AcDbLine
 10
91.4769120928848
 20
29.00548488008342
 30
0.0
 11
91.4769120928848
 21
28.53304393520153
 31
0.0
  0
LINE
  5
1E5A
330
1F
100
AcDbEntity
  8
0
100
AcDbLine
 10
90.65014043934151
 20
28.53304393520153
 30
0.0
 11
90.65014043934151
 21
29.00548488008342
 31
0.0
  0
LINE
  5
1E5B
330
1F
100
AcDbEntity
  8
0
100
AcDbLine
 10
91.4769120928848
 20
29.00548488008342
 30
0.0
 11
90.73664984929094
 21
29.00548488008342
 31
0.0
  0
LINE
  5
1E5C
330
1F
100
AcDbEntity
  8
Layer1
100
AcDbLine
 10
91.80808450009637
 20
30.50548488008342
 30
0.0
 11
91.80808450009637
 21
16.00548488008342
 31
0.0
  0
LINE
  5
1E5D
330
1F
100
AcDbEntity
  8
Layer1
100
AcDbLine
 10
90.30808450009637
 20
30.50548488008342
 30
0.0
 11
90.30808450009637
 21
16.00548488008342
 31
0.0
  0
LINE
  5
1E5E
330
1F
100
AcDbEntity
  8
Layer1
100
AcDbLine
 10
91.99558450009637
 20
30.50548488008342
 30
0.0
 11
91.99558450009637
 21
16.00548488008342
 31
0.0
  0
LINE
  5
1E5F
330
1F
100
AcDbEntity
  8
Layer1
100
AcDbLine
 10
90.12058450009637
 20
30.50548488008342
 30
0.0
 11
90.12058450009637
 21
16.00548488008342
 31
0.0
  0
LINE
  5
1E60
330
1F
100
AcDbEntity
  8
0
100
AcDbLine
 10
92.68808450009637
 20
30.50548488008342
 30
0.0
 11
91.80808450009637
 21
30.50548488008342
 31
0.0
  0
LINE
  5
1E61
330
1F
100
AcDbEntity
  8
0
100
AcDbLine
 10
89.53532755990616
 20
30.50548488008342
 30
0.0
 11
90.30808450009637
 21
30.50548488008342
 31
0.0
  0
LINE
  5
1E62
330
1F
100
AcDbEntity
  8
0
100
AcDbLine
 10
92.68808450009637
 20
30.38881906198792
 30
0.0
 11
92.68808450009637
 21
16.1932397371085
 31
0.0
  0
LINE
  5
1E63
330
1F
100
AcDbEntity
  8
0
100
AcDbLine
 10
89.42808450009638
 20
30.50548488008342
 30
0.0
 11
89.42808450009638
 21
16.1932397371085
 31
0.0
  0
LINE
  5
1E64
330
1F
100
AcDbEntity
  8
0
100
AcDbLine
 10
91.80808450009637
 20
1.50548488008342
 30
0.0
 11
90.30808450009637
 21
1.50548488008342
 31
0.0
  0
LINE
  5
1E65
330
1F
100
AcDbEntity
  8
0
100
AcDbLine
 10
91.4769120928848
 20
11.47792582496532
 30
0.0
 11
90.76702832779718
 21
11.47792582496532
 31
0.0
  0
LINE
  5
1E66
330
1F
100
AcDbEntity
  8
0
100
AcDbLine
 10
91.4769120928848
 20
11.00548488008342
 30
0.0
 11
91.4769120928848
 21
11.47792582496532
 31
0.0
  0
LINE
  5
1E67
330
1F
100
AcDbEntity
  8
0
100
AcDbLine
 10
90.65014043934151
 20
11.47792582496532
 30
0.0
 11
90.65014043934151
 21
11.00548488008342
 31
0.0
  0
LINE
  5
1E68
330
1F
100
AcDbEntity
  8
0
100
AcDbLine
 10
91.4769120928848
 20
11.00548488008342
 30
0.0
 11
90.65014043934151
 21
11.00548488008342
 31
0.0
  0
LINE
  5
1E69
330
1F
100
AcDbEntity
  8
0
100
AcDbLine
 10
91.4769120928848
 20
3.477925824965316
 30
0.0
 11
90.65014043934151
 21
3.477925824965316
 31
0.0
  0
LINE
  5
1E6A
330
1F
100
AcDbEntity
  8
0
100
AcDbLine
 10
91.4769120928848
 20
3.00548488008342
 30
0.0
 11
91.4769120928848
 21
3.477925824965316
 31
0.0
  0
LINE
  5
1E6B
330
1F
100
AcDbEntity
  8
0
100
AcDbLine
 10
90.65014043934151
 20
3.477925824965316
 30
0.0
 11
90.65014043934151
 21
3.00548488008342
 31
0.0
  0
LINE
  5
1E6C
330
1F
100
AcDbEntity
  8
0
100
AcDbLine
 10
91.37247983988699
 20
3.00548488008342
 30
0.0
 11
90.65014043934151
 21
3.00548488008342
 31
0.0
  0
ARC
  5
1E6D
330
1F
100
AcDbEntity
  8
0
100
AcDbCircle
 10
91.03204498834852
 20
16.00548488008342
 30
0.0
 40
0.375
100
AcDbArc
 50
180.0
 51
350.6256780405323
  0
LINE
  5
1E6E
330
1F
100
AcDbEntity
  8
Layer1
100
AcDbLine
 10
91.80808450009637
 20
1.50548488008342
 30
0.0
 11
91.80808450009637
 21
16.00548488008342
 31
0.0
  0
LINE
  5
1E6F
330
1F
100
AcDbEntity
  8
Layer1
100
AcDbLine
 10
90.30808450009637
 20
1.50548488008342
 30
0.0
 11
90.30808450009637
 21
16.00548488008342
 31
0.0
  0
LINE
  5
1E70
330
1F
100
AcDbEntity
  8
Layer1
100
AcDbLine
 10
91.99558450009637
 20
1.50548488008342
 30
0.0
 11
91.99558450009637
 21
16.00548488008342
 31
0.0
  0
LINE
  5
1E71
330
1F
100
AcDbEntity
  8
Layer1
100
AcDbLine
 10
90.12058450009637
 20
1.50548488008342
 30
0.0
 11
90.12058450009637
 21
16.00548488008342
 31
0.0
  0
LINE
  5
1E72
330
1F
100
AcDbEntity
  8
0
100
AcDbLine
 10
92.57459732560127
 20
1.50548488008342
 30
0.0
 11
91.80808450009637
 21
1.50548488008342
 31
0.0
  0
LINE
  5
1E73
330
1F
100
AcDbEntity
  8
0
100
AcDbLine
 10
89.42808450009638
 20
1.50548488008342
 30
0.0
 11
90.30808450009637
 21
1.50548488008342
 31
0.0
  0
LINE
  5
1E74
330
1F
100
AcDbEntity
  8
0
100
AcDbLine
 10
92.68808450009637
 20
1.50548488008342
 30
0.0
 11
92.68808450009637
 21
15.81773002305833
 31
0.0
  0
LINE
  5
1E75
330
1F
100
AcDbEntity
  8
0
100
AcDbLine
 10
89.42808450009638
 20
1.686118899574884
 30
0.0
 11
89.42808450009638
 21
15.81773002305833
 31
0.0
  0
ARC
  5
1E76
330
1F
100
AcDbEntity
  8
0
100
AcDbCircle
 10
91.03204498834852
 20
16.00548488008342
 30
0.0
 40
0.375
100
AcDbArc
 50
9.374321959467972
 51
180.0
  0
LINE
  5
1E77
330
1F
100
AcDbEntity
  8
Layer2
100
AcDbLine
 10
90.56842308977618
 20
13.96244585342418
 30
0.0
 11
90.56842308977618
 21
13.23346900825799
 31
0.0
  0
LINE
  5
1E78
330
1F
100
AcDbEntity
  8
Layer2
100
AcDbLine
 10
90.56842308977618
 20
13.23346900825799
 30
0.0
 11
91.07106123829699
 21
13.23346900825799
 31
0.0
  0
LINE
  5
1E79
330
1F
100
AcDbEntity
  8
Layer2
100
AcDbLine
 10
90.56842308977618
 20
13.96244585342418
 30
0.0
 11
90.67017320391979
 21
13.96244585342418
 31
0.0
  0
LINE
  5
1E7A
330
1F
100
AcDbEntity
  8
Layer2
100
AcDbLine
 10
90.67017320391979
 20
13.96244585342418
 30
0.0
 11
90.67017320391979
 21
13.33661295958165
 31
0.0
  0
LINE
  5
1E7B
330
1F
100
AcDbEntity
  8
Layer2
100
AcDbLine
 10
90.56842308977618
 20
13.33661295958165
 30
0.0
 11
91.07106123829699
 21
13.33661295958165
 31
0.0
  0
LINE
  5
1E7C
330
1F
100
AcDbEntity
  8
Layer2
100
AcDbLine
 10
91.57369938681781
 20
13.96244585342418
 30
0.0
 11
91.57369938681781
 21
13.23346900825799
 31
0.0
  0
LINE
  5
1E7D
330
1F
100
AcDbEntity
  8
Layer2
100
AcDbLine
 10
91.57369938681781
 20
13.23346900825799
 30
0.0
 11
91.07106123829699
 21
13.23346900825799
 31
0.0
  0
LINE
  5
1E7E
330
1F
100
AcDbEntity
  8
Layer2
100
AcDbLine
 10
91.57369938681781
 20
13.96244585342418
 30
0.0
 11
91.47194927267408
 21
13.96244585342418
 31
0.0
  0
LINE
  5
1E7F
330
1F
100
AcDbEntity
  8
Layer2
100
AcDbLine
 10
91.47194927267408
 20
13.96244585342418
 30
0.0
 11
91.47194927267408
 21
13.33661295958165
 31
0.0
  0
LINE
  5
1E80
330
1F
100
AcDbEntity
  8
Layer2
100
AcDbLine
 10
91.57369938681781
 20
13.33661295958165
 30
0.0
 11
91.07106123829699
 21
13.33661295958165
 31
0.0
  0
LINE
  5
1ED6
330
1F
100
AcDbEntity
  8
0
100
AcDbLine
 10
37.35280788116577
 20
14.50252112966244
 30
0.0
 11
37.35280788116577
 21
14.03008018478054
 31
0.0
  0
LINE
  5
1ED8
330
1F
100
AcDbEntity
  8
0
100
AcDbLine
 10
37.35280788116577
 20
14.50252112966244
 30
0.0
 11
36.20997095862494
 21
14.50252112966244
 31
0.0
  0
LINE
  5
1ED9
330
1F
100
AcDbEntity
  8
0
100
AcDbLine
 10
36.09280788116577
 20
14.50252112966244
 30
0.0
 11
36.09280788116577
 21
14.03008018478054
 31
0.0
  0
LINE
  5
1EDA
330
1F
100
AcDbEntity
  8
0
100
AcDbLine
 10
36.09280788116577
 20
14.03008018478054
 30
0.0
 11
37.35280788116577
 21
14.03008018478054
 31
0.0
  0
LINE
  5
1F00
330
1F
100
AcDbEntity
  8
0
100
AcDbLine
 10
91.4769120928848
 20
20.53304393520152
 30
0.0
 11
90.76702832779718
 21
20.53304393520152
 31
0.0
  0
LINE
  5
1F01
330
1F
100
AcDbEntity
  8
0
100
AcDbLine
 10
91.4769120928848
 20
21.00548488008342
 30
0.0
 11
91.4769120928848
 21
20.53304393520152
 31
0.0
  0
LINE
  5
1F02
330
1F
100
AcDbEntity
  8
0
100
AcDbLine
 10
90.65014043934151
 20
20.53304393520152
 30
0.0
 11
90.65014043934151
 21
21.00548488008342
 31
0.0
  0
LINE
  5
1F03
330
1F
100
AcDbEntity
  8
0
100
AcDbLine
 10
91.4769120928848
 20
21.00548488008342
 30
0.0
 11
90.65014043934151
 21
21.00548488008342
 31
0.0
  0
LINE
  5
1F65
330
1F
100
AcDbEntity
  8
Layer1
100
AcDbLine
 10
68.37720105638509
 20
20.17896793520434
 30
0.0
 11
68.37720105638509
 21
2.428967935204337
 31
0.0
  0
LINE
  5
1F66
330
1F
100
AcDbEntity
  8
0
100
AcDbLine
 10
69.35110668643429
 20
2.269311274540527
 30
0.0
 11
61.17131354285184
 21
3.610260970209747
 31
0.0
  0
LINE
  5
1F67
330
1F
100
AcDbEntity
  8
0
100
AcDbLine
 10
68.37720105638509
 20
20.17896793520434
 30
0.0
 11
70.12720105638509
 21
19.60381895093637
 31
0.0
  0
LINE
  5
1F68
330
1F
100
AcDbEntity
  8
0
100
AcDbLine
 10
70.12720105638509
 20
19.60381895093637
 30
0.0
 11
70.12720105638509
 21
12.25899382308293
 31
0.0
  0
LINE
  5
1F69
330
1F
100
AcDbEntity
  8
0
100
AcDbLine
 10
70.12720105638509
 20
12.17896793520434
 30
0.0
 11
69.65915278702049
 21
2.860203621379949
 31
0.0
  0
ARC
  5
1F6A
330
1F
100
AcDbEntity
  8
0
100
AcDbCircle
 10
69.39155044320091
 20
2.516018190816897
 30
0.0
 40
0.25
100
AcDbArc
 50
260.6900598250205
 51
357.1246537537211
  0
LINE
  5
1F6B
330
1F
100
AcDbEntity
  8
0
100
AcDbLine
 10
68.37720105638509
 20
21.67896793520434
 30
0.0
 11
68.37720105638509
 21
20.17896793520434
 31
0.0
  0
LINE
  5
1F6C
330
1F
100
AcDbEntity
  8
Layer2
100
AcDbLine
 10
69.8599058930427
 20
12.17896793520434
 30
0.0
 11
68.62598055414804
 21
12.17896793520434
 31
0.0
  0
LINE
  5
1F6D
330
1F
100
AcDbEntity
  8
0
100
AcDbLine
 10
68.77680306522721
 20
16.45082289945957
 30
0.0
 11
69.70332320599877
 21
16.45082289945957
 31
0.0
  0
LINE
  5
1F6E
330
1F
100
AcDbEntity
  8
Layer2
100
AcDbLine
 10
68.77680306522721
 20
8.450822899459567
 30
0.0
 11
69.70332320599877
 21
8.450822899459567
 31
0.0
  0
LINE
  5
1F6F
330
1F
100
AcDbEntity
  8
0
100
AcDbLine
 10
68.17216047462396
 20
21.67896793520434
 30
0.0
 11
58.81848968033081
 21
21.67896793520434
 31
0.0
  0
LINE
  5
1F70
330
1F
100
AcDbEntity
  8
Layer1
100
AcDbLine
 10
63.87720105638508
 20
3.166672853237099
 30
0.0
 11
63.87720105638509
 21
21.67896793520434
 31
0.0
  0
LINE
  5
1F71
330
1F
100
AcDbEntity
  8
Layer1
100
AcDbLine
 10
60.75220105638508
 20
4.103674802762537
 30
0.0
 11
60.75220105638508
 21
21.67896793520434
 31
0.0
  0
LINE
  5
1F72
330
1F
100
AcDbEntity
  8
Layer1
100
AcDbLine
 10
62.37720105638508
 20
3.412574492581356
 30
0.0
 11
62.37720105638508
 21
21.67896793520434
 31
0.0
  0
LINE
  5
1F73
330
1F
100
AcDbEntity
  8
Layer1
100
AcDbLine
 10
59.12720105638508
 20
4.103674802762537
 30
0.0
 11
59.12720105638508
 21
21.67896793520434
 31
0.0
  0
LINE
  5
1F74
330
1F
100
AcDbEntity
  8
Layer1
100
AcDbLine
 10
57.62720105638508
 20
4.103674802762537
 30
0.0
 11
57.62720105638508
 21
21.67896793520434
 31
0.0
  0
LINE
  5
1F75
330
1F
100
AcDbEntity
  8
Layer2
100
AcDbLine
 10
58.95590846676122
 20
7.178967935204337
 30
0.0
 11
57.93879409262147
 21
7.178967935204337
 31
0.0
  0
LINE
  5
1F76
330
1F
100
AcDbEntity
  8
Layer1
100
AcDbLine
 10
59.93970105638508
 20
21.67896793520434
 30
0.0
 11
59.93970105638508
 21
4.103674802762537
 31
0.0
  0
LINE
  5
1F77
330
1F
100
AcDbEntity
  8
Layer1
100
AcDbLine
 10
61.56470105638508
 20
21.67896793520434
 30
0.0
 11
61.56470105638508
 21
3.545771213892849
 31
0.0
  0
LINE
  5
1F78
330
1F
100
AcDbEntity
  8
0
100
AcDbLine
 10
57.75264282240188
 20
8.833509296271178
 30
0.0
 11
57.75264282240188
 21
8.678967935204337
 31
0.0
  0
LINE
  5
1F79
330
1F
100
AcDbEntity
  8
0
100
AcDbLine
 10
57.75264282240188
 20
9.151408880086237
 30
0.0
 11
57.75264282240188
 21
8.996867519019407
 31
0.0
  0
LINE
  5
1F7A
330
1F
100
AcDbEntity
  8
0
100
AcDbLine
 10
57.81708852908081
 20
9.151408880086237
 30
0.0
 11
57.75264282240188
 21
9.151408880086237
 31
0.0
  0
LINE
  5
1F7B
330
1F
100
AcDbEntity
  8
0
100
AcDbLine
 10
59.01264282240189
 20
9.151408880086237
 30
0.0
 11
58.94819711572295
 21
9.151408880086237
 31
0.0
  0
LINE
  5
1F7C
330
1F
100
AcDbEntity
  8
0
100
AcDbLine
 10
57.81708852908081
 20
8.678967935204337
 30
0.0
 11
57.75264282240188
 21
8.678967935204337
 31
0.0
  0
LINE
  5
1F7D
330
1F
100
AcDbEntity
  8
0
100
AcDbLine
 10
59.01264282240189
 20
8.678967935204337
 30
0.0
 11
58.94819711572295
 21
8.678967935204337
 31
0.0
  0
LINE
  5
1F7E
330
1F
100
AcDbEntity
  8
0
100
AcDbLine
 10
59.01264282240189
 20
8.996867519019407
 30
0.0
 11
59.01264282240189
 21
9.151408880086237
 31
0.0
  0
LINE
  5
1F7F
330
1F
100
AcDbEntity
  8
0
100
AcDbLine
 10
59.01264282240189
 20
8.678967935204337
 30
0.0
 11
59.01264282240189
 21
8.833509296271178
 31
0.0
  0
LINE
  5
1F80
330
1F
100
AcDbEntity
  8
0
100
AcDbLine
 10
60.6322242248247
 20
4.103674802762537
 30
0.0
 11
53.40008290076003
 21
4.103674802762537
 31
0.0
  0
ARC
  5
1F81
330
1F
100
AcDbEntity
  8
0
100
AcDbCircle
 10
61.25220105638508
 20
4.103674802762537
 30
0.0
 40
0.4999999999999997
100
AcDbArc
 50
180.0
 51
260.6900598250139
  0
LINE
  5
1F82
330
1F
100
AcDbEntity
  8
0
100
AcDbLine
 10
53.12720105638508
 20
4.103674802762537
 30
0.0
 11
53.12720105638508
 21
8.325818660986997
 31
0.0
  0
ARC
  5
1F83
330
1F
100
AcDbEntity
  8
0
100
AcDbCircle
 10
58.35116154463724
 20
21.67896793520434
 30
0.0
 40
0.375
100
AcDbArc
 50
180.0
 51
0.0
  0
LINE
  5
1F84
330
1F
100
AcDbEntity
  8
0
100
AcDbLine
 10
57.97616154463724
 20
21.67896793520434
 30
0.0
 11
53.27114934740813
 21
21.67896793520434
 31
0.0
  0
POLYLINE
  5
1F85
330
1F
100
AcDbEntity
  8
Layer 1
100
AcDb2dPolyline
 66
     1
 10
0.0
 20
0.0
 30
0.0
  0
VERTEX
  5
1F86
330
1F85
100
AcDbEntity
  8
Layer 1
100
AcDbVertex
100
AcDb2dVertex
 10
53.30689364253308
 20
16.325818660987
 30
0.0
  0
VERTEX
  5
1F87
330
1F85
100
AcDbEntity
  8
Layer 1
100
AcDbVertex
100
AcDb2dVertex
 10
53.12720105638508
 20
16.325818660987
 30
0.0
  0
SEQEND
  5
1F88
330
1F85
100
AcDbEntity
  8
Layer 1
  0
POLYLINE
  5
1F89
330
1F
100
AcDbEntity
  8
Layer 1
100
AcDb2dPolyline
 66
     1
 10
0.0
 20
0.0
 30
0.0
  0
VERTEX
  5
1F8A
330
1F89
100
AcDbEntity
  8
Layer 1
100
AcDbVertex
100
AcDb2dVertex
 10
53.30689364253308
 20
16.57582713793214
 30
0.0
  0
VERTEX
  5
1F8B
330
1F89
100
AcDbEntity
  8
Layer 1
100
AcDbVertex
100
AcDb2dVertex
 10
53.12720105638508
 20
16.57582713793214
 30
0.0
  0
SEQEND
  5
1F8C
330
1F89
100
AcDbEntity
  8
Layer 1
  0
ARC
  5
1F8D
330
1F
100
AcDbEntity
  8
0
100
AcDbCircle
 10
53.30689364253308
 20
16.45082289945957
 30
0.0
 40
0.1250042384725703
100
AcDbArc
 50
270.0
 51
90.0
  0
POLYLINE
  5
1F8E
330
1F
100
AcDbEntity
  8
Layer 1
100
AcDb2dPolyline
 66
     1
 10
0.0
 20
0.0
 30
0.0
  0
VERTEX
  5
1F8F
330
1F8E
100
AcDbEntity
  8
Layer 1
100
AcDbVertex
100
AcDb2dVertex
 10
53.30689364253308
 20
8.325818660986997
 30
0.0
  0
VERTEX
  5
1F90
330
1F8E
100
AcDbEntity
  8
Layer 1
100
AcDbVertex
100
AcDb2dVertex
 10
53.12720105638508
 20
8.325818660986997
 30
0.0
  0
SEQEND
  5
1F91
330
1F8E
100
AcDbEntity
  8
Layer 1
  0
POLYLINE
  5
1F92
330
1F
100
AcDbEntity
  8
Layer 1
100
AcDb2dPolyline
 66
     1
 10
0.0
 20
0.0
 30
0.0
  0
VERTEX
  5
1F93
330
1F92
100
AcDbEntity
  8
Layer 1
100
AcDbVertex
100
AcDb2dVertex
 10
53.30689364253308
 20
8.575827137932137
 30
0.0
  0
VERTEX
  5
1F94
330
1F92
100
AcDbEntity
  8
Layer 1
100
AcDbVertex
100
AcDb2dVertex
 10
53.12720105638508
 20
8.575827137932137
 30
0.0
  0
SEQEND
  5
1F95
330
1F92
100
AcDbEntity
  8
Layer 1
  0
ARC
  5
1F96
330
1F
100
AcDbEntity
  8
0
100
AcDbCircle
 10
53.30689364253308
 20
8.450822899459567
 30
0.0
 40
0.1250042384725703
100
AcDbArc
 50
270.0
 51
90.0
  0
LINE
  5
1F97
330
1F
100
AcDbEntity
  8
0
100
AcDbLine
 10
53.12720105638508
 20
16.57582713793214
 30
0.0
 11
53.12720105638508
 21
21.67896793520434
 31
0.0
  0
LINE
  5
1F98
330
1F
100
AcDbEntity
  8
0
100
AcDbLine
 10
53.12720105638508
 20
8.575827137932137
 30
0.0
 11
53.12720105638508
 21
16.12481148868439
 31
0.0
  0
LINE
  5
1F99
330
1F
100
AcDbEntity
  8
0
100
AcDbLine
 10
59.01264282240189
 20
16.67896793520434
 30
0.0
 11
59.01264282240189
 21
17.15140888008624
 31
0.0
  0
LINE
  5
1F9A
330
1F
100
AcDbEntity
  8
0
100
AcDbLine
 10
59.01264282240189
 20
16.67896793520434
 30
0.0
 11
57.86980589986106
 21
16.67896793520434
 31
0.0
  0
LINE
  5
1F9B
330
1F
100
AcDbEntity
  8
0
100
AcDbLine
 10
57.75264282240188
 20
16.67896793520434
 30
0.0
 11
57.75264282240188
 21
17.15140888008624
 31
0.0
  0
LINE
  5
1F9C
330
1F
100
AcDbEntity
  8
0
100
AcDbLine
 10
57.75264282240188
 20
17.15140888008624
 30
0.0
 11
59.01264282240189
 21
17.15140888008624
 31
0.0
  0
LINE
  5
1FA1
330
1F
100
AcDbEntity
  8
Layer1
100
AcDbLine
 10
82.07521521901572
 20
7.837030447593065
 30
0.0
 11
82.07521521901572
 21
14.54820615424457
 31
0.0
  0
LINE
  5
1FA2
330
1F
100
AcDbEntity
  8
Layer1
100
AcDbLine
 10
80.0252152190157
 20
7.837030447593065
 30
0.0
 11
80.0252152190157
 21
14.54820615424457
 31
0.0
  0
LINE
  5
1FA3
330
1F
100
AcDbEntity
  8
0
100
AcDbLine
 10
80.0252152190157
 20
7.837030447593065
 30
0.0
 11
80.0252152190157
 21
7.458110634225065
 31
0.0
  0
LINE
  5
1FA4
330
1F
100
AcDbEntity
  8
0
100
AcDbLine
 10
82.07521521901572
 20
7.837030447593065
 30
0.0
 11
82.07521521901572
 21
7.458110634225065
 31
0.0
  0
LINE
  5
1FA5
330
1F
100
AcDbEntity
  8
0
100
AcDbLine
 10
82.07521521901572
 20
7.647570540909065
 30
0.0
 11
80.0252152190157
 21
7.647570540909065
 31
0.0
  0
LINE
  5
1FA6
330
1F
100
AcDbEntity
  8
0
100
AcDbLine
 10
82.07521521901572
 20
14.92712596761267
 30
0.0
 11
82.07521521901572
 21
14.54820615424457
 31
0.0
  0
LINE
  5
1FA7
330
1F
100
AcDbEntity
  8
0
100
AcDbLine
 10
80.02521521901573
 20
14.92712596761267
 30
0.0
 11
80.0252152190157
 21
14.54820615424457
 31
0.0
  0
LINE
  5
1FA8
330
1F
100
AcDbEntity
  8
0
100
AcDbLine
 10
82.07521521901572
 20
14.73766606092862
 30
0.0
 11
80.02521521901572
 21
14.73766606092862
 31
0.0
  0
LINE
  5
1FDA
330
1F
100
AcDbEntity
  8
Layer2
100
AcDbLine
 10
79.42897977717338
 20
14.92712596761267
 30
0.0
 11
79.02939889477986
 21
14.92712596761267
 31
0.0
  0
LINE
  5
1FDB
330
1F
100
AcDbEntity
  8
Layer2
100
AcDbLine
 10
82.61282915480986
 20
14.92712596761267
 30
0.0
 11
83.04541113686534
 21
14.92712596761267
 31
0.0
  0
LINE
  5
1FDC
330
1F
100
AcDbEntity
  8
Layer2
100
AcDbLine
 10
83.71435234622948
 20
14.92712596761267
 30
0.0
 11
84.13355550409767
 21
14.92712596761267
 31
0.0
  0
LINE
  5
2006
330
1F
100
AcDbEntity
  8
0
100
AcDbLine
 10
79.11555085493279
 20
23.22068809713322
 30
0.0
 11
79.11555085493279
 21
23.85316755097895
 31
0.0
  0
LINE
  5
2007
330
1F
100
AcDbEntity
  8
0
100
AcDbLine
 10
79.58799179981469
 20
23.12581313451989
 30
0.0
 11
79.11555085493279
 21
23.12581313451989
 31
0.0
  0
LINE
  5
2008
330
1F
100
AcDbEntity
  8
0
100
AcDbLine
 10
79.11555085493279
 20
23.95258478806318
 30
0.0
 11
79.58799179981469
 21
23.95258478806318
 31
0.0
  0
LINE
  5
2009
330
1F
100
AcDbEntity
  8
0
100
AcDbLine
 10
79.58799179981469
 20
23.21612145847729
 30
0.0
 11
79.58799179981469
 21
23.86607537811376
 31
0.0
  0
LINE
  5
2011
330
1F
100
AcDbEntity
  8
0
100
AcDbLine
 10
82.97717974364616
 20
23.22693154842061
 30
0.0
 11
82.97717974364616
 21
23.84057361781065
 31
0.0
  0
LINE
  5
2012
330
1F
100
AcDbEntity
  8
0
100
AcDbLine
 10
82.50473879876427
 20
23.12581313451989
 30
0.0
 11
82.97717974364616
 21
23.12581313451989
 31
0.0
  0
LINE
  5
2013
330
1F
100
AcDbEntity
  8
0
100
AcDbLine
 10
82.97717974364616
 20
23.95258478806318
 30
0.0
 11
82.50473879876427
 21
23.95258478806318
 31
0.0
  0
LINE
  5
2014
330
1F
100
AcDbEntity
  8
0
100
AcDbLine
 10
82.50473879876427
 20
23.22336386197067
 30
0.0
 11
82.50473879876427
 21
23.86607537811376
 31
0.0
  0
CIRCLE
  5
2121
330
1F
100
AcDbEntity
  8
0
100
AcDbCircle
 10
88.67813395835606
 20
11.32082279719343
 30
0.0
 40
0.0380551635296476
  0
CIRCLE
  5
2148
330
1F
100
AcDbEntity
  8
0
100
AcDbCircle
 10
75.75248107876978
 20
20.92638672223857
 30
0.0
 40
0.0380551635296476
  0
ENDSEC
  0
SECTION
  2
OBJECTS
  0
DICTIONARY
  5
C
330
0
100
AcDbDictionary
281
     1
  3
ACAD_DETAILVIEWSTYLE
350
122
  3
ACAD_GROUP
350
D
  3
ACAD_IMAGE_VARS
350
DC
  3
ACAD_LAYOUT
350
1A
  3
ACAD_MLINESTYLE
350
17
  3
ACAD_PLOTSETTINGS
350
19
  3
ACAD_PLOTSTYLENAME
350
E
  3
ACAD_SCALELIST
350
B6
  3
ACAD_SECTIONVIEWSTYLE
350
123
  3
AcDbVariableDictionary
350
66
  3
APPDATA
350
E1
  3
DWGPROPS
350
21FD
  0
DICTIONARY
  5
2D8
330
2
100
AcDbDictionary
280
     1
281
     1
  3
ACAD_LAYERSTATES
360
2D9
  3
ACLYDICTIONARY
360
2061
  0
DICTIONARY
  5
122
102
{ACAD_REACTORS
330
C
102
}
330
C
100
AcDbDictionary
281
     1
  0
DICTIONARY
  5
D
102
{ACAD_REACTORS
330
C
102
}
330
C
100
AcDbDictionary
281
     1
  0
RASTERVARIABLES
  5
DC
102
{ACAD_REACTORS
330
C
102
}
330
C
100
AcDbRasterVariables
 90
        0
 70
     1
 71
     1
 72
     5
  0
DICTIONARY
  5
1A
102
{ACAD_REACTORS
330
C
102
}
330
C
100
AcDbDictionary
281
     1
  3
Model
350
22
  3
Sheet1
350
59
  3
Sheet2
350
5E
  0
DICTIONARY
  5
17
102
{ACAD_REACTORS
330
C
102
}
330
C
100
AcDbDictionary
281
     1
  3
Standard
350
18
  0
DICTIONARY
  5
19
102
{ACAD_REACTORS
330
C
102
}
330
C
100
AcDbDictionary
281
     1
  0
ACDBDICTIONARYWDFLT
  5
E
102
{ACAD_REACTORS
330
C
102
}
330
C
100
AcDbDictionary
281
     1
  3
Normal
350
F
100
AcDbDictionaryWithDefault
340
F
  0
DICTIONARY
  5
B6
102
{ACAD_REACTORS
330
C
102
}
330
C
100
AcDbDictionary
281
     1
  3
A0
350
B7
  3
A1
350
B8
  3
A2
350
B9
  3
A3
350
BA
  3
A4
350
BB
  3
A5
350
BC
  3
A6
350
BD
  3
A7
350
BE
  3
A8
350
BF
  3
A9
350
C0
  3
B0
350
C1
  3
B1
350
C2
  3
B2
350
C3
  3
B3
350
C4
  3
B4
350
C5
  3
B5
350
C6
  3
B6
350
C7
  3
B7
350
C8
  3
B8
350
C9
  3
B9
350
CA
  3
C0
350
CB
  3
C1
350
CC
  3
C2
350
CD
  3
C3
350
CE
  3
C4
350
CF
  3
C5
350
D0
  3
C6
350
D1
  3
C7
350
D2
  3
C8
350
D3
  3
C9
350
D4
  3
D0
350
D5
  3
D1
350
D6
  3
D2
350
D7
  0
DICTIONARY
  5
123
102
{ACAD_REACTORS
330
C
102
}
330
C
100
AcDbDictionary
281
     1
  0
DICTIONARY
  5
66
102
{ACAD_REACTORS
330
C
102
}
330
C
100
AcDbDictionary
281
     1
  3
DIMASSOC
350
67
  3
HIDETEXT
350
6B
  0
DICTIONARY
  5
E1
102
{ACAD_REACTORS
330
C
102
}
330
C
100
AcDbDictionary
281
     1
  0
XRECORD
  5
21FD
102
{ACAD_REACTORS
330
C
102
}
330
C
100
AcDbXrecord
280
     1
  1
DWGPROPS COOKIE
  2

  3

  4

  6

  7

  8
justin.boetsma
  9

300
=
301
=
302
=
303
=
304
=
305
=
306
=
307
=
308
=
309
=
 40
0.0
 41
2452643.063384271
 42
2458764.761413125
  1

 90
        0
  0
DICTIONARY
  5
2D9
102
{ACAD_REACTORS
330
2D8
102
}
330
2D8
100
AcDbDictionary
281
     1
  0
DICTIONARY
  5
2061
102
{ACAD_REACTORS
330
2D8
102
}
330
2D8
100
AcDbDictionary
281
     1
1001
ACAD
1000
<All
  0
LAYOUT
  5
22
102
{ACAD_REACTORS
330
1A
102
}
330
1A
100
AcDbPlotSettings
  1

  2
none_device
  4
ANSI_A_(8.50_x_11.00_Inches)
  6

 40
6.35
 41
19.05
 42
6.35
 43
19.05
 44
215.9
 45
279.4
 46
11.11250000000003
 47
0.0000000000000142
 48
0.0
 49
0.0
140
0.0
141
0.0
142
1.0
143
1.263157894736842
 70
 11444
 72
     0
 73
     1
 74
     1
  7
monochrome.ctb
 75
     0
147
0.7916666666666665
148
-702.8076765758875
149
-496.2830551296954
100
AcDbLayout
  1
Model
 70
     1
 71
     0
 10
0.0
 20
0.0
 11
12.0
 21
9.0
 12
0.0
 22
0.0
 32
0.0
 14
30.00636848302487
 24
0.8045005554732683
 34
0.0
 15
94.09498804319823
 25
31.00548488008342
 35
0.0
146
0.0
 13
0.0
 23
0.0
 33
0.0
 16
1.0
 26
0.0
 36
0.0
 17
0.0
 27
1.0
 37
0.0
 76
     0
330
1F
331
94
  0
LAYOUT
  5
59
102
{ACAD_REACTORS
330
1A
102
}
330
1A
100
AcDbPlotSettings
  1

  2
None
  4

  6

 40
0.0
 41
0.0
 42
0.0
 43
0.0
 44
0.0
 45
0.0
 46
0.0
 47
0.0
 48
0.0
 49
0.0
140
0.0
141
0.0
142
1.0
143
1.0
 70
   688
 72
     0
 73
     0
 74
     5
  7

 75
    16
147
1.0
148
0.0
149
0.0
100
AcDbLayout
  1
Sheet1
 70
     1
 71
     1
 10
0.0
 20
0.0
 11
12.0
 21
9.0
 12
0.0
 22
0.0
 32
0.0
 14
0.0
 24
0.0
 34
0.0
 15
0.0
 25
0.0
 35
0.0
146
0.0
 13
0.0
 23
0.0
 33
0.0
 16
1.0
 26
0.0
 36
0.0
 17
0.0
 27
1.0
 37
0.0
 76
     0
330
58
  0
LAYOUT
  5
5E
102
{ACAD_REACTORS
330
1A
102
}
330
1A
100
AcDbPlotSettings
  1

  2
None
  4

  6

 40
0.0
 41
0.0
 42
0.0
 43
0.0
 44
0.0
 45
0.0
 46
0.0
 47
0.0
 48
0.0
 49
0.0
140
0.0
141
0.0
142
1.0
143
1.0
 70
   688
 72
     0
 73
     0
 74
     5
  7

 75
    16
147
1.0
148
0.0
149
0.0
100
AcDbLayout
  1
Sheet2
 70
     1
 71
     2
 10
0.0
 20
0.0
 11
12.0
 21
9.0
 12
0.0
 22
0.0
 32
0.0
 14
0.0
 24
0.0
 34
0.0
 15
0.0
 25
0.0
 35
0.0
146
0.0
 13
0.0
 23
0.0
 33
0.0
 16
1.0
 26
0.0
 36
0.0
 17
0.0
 27
1.0
 37
0.0
 76
     0
330
5D
  0
MLINESTYLE
  5
18
102
{ACAD_REACTORS
330
17
102
}
330
17
100
AcDbMlineStyle
  2
STANDARD
 70
     0
  3

 62
   256
 51
90.0
 52
90.0
 71
     2
 49
0.5
 62
   256
  6
BYLAYER
 49
-0.5
 62
   256
  6
BYLAYER
  0
ACDBPLACEHOLDER
  5
F
102
{ACAD_REACTORS
330
E
102
}
330
E
  0
SCALE
  5
B7
102
{ACAD_REACTORS
330
B6
102
}
330
B6
100
AcDbScale
 70
     0
300
1:1
140
1.0
141
1.0
290
     1
  0
SCALE
  5
B8
102
{ACAD_REACTORS
330
B6
102
}
330
B6
100
AcDbScale
 70
     0
300
1:2
140
1.0
141
2.0
290
     0
  0
SCALE
  5
B9
102
{ACAD_REACTORS
330
B6
102
}
330
B6
100
AcDbScale
 70
     0
300
1:4
140
1.0
141
4.0
290
     0
  0
SCALE
  5
BA
102
{ACAD_REACTORS
330
B6
102
}
330
B6
100
AcDbScale
 70
     0
300
1:5
140
1.0
141
5.0
290
     0
  0
SCALE
  5
BB
102
{ACAD_REACTORS
330
B6
102
}
330
B6
100
AcDbScale
 70
     0
300
1:8
140
1.0
141
8.0
290
     0
  0
SCALE
  5
BC
102
{ACAD_REACTORS
330
B6
102
}
330
B6
100
AcDbScale
 70
     0
300
1:10
140
1.0
141
10.0
290
     0
  0
SCALE
  5
BD
102
{ACAD_REACTORS
330
B6
102
}
330
B6
100
AcDbScale
 70
     0
300
1:16
140
1.0
141
16.0
290
     0
  0
SCALE
  5
BE
102
{ACAD_REACTORS
330
B6
102
}
330
B6
100
AcDbScale
 70
     0
300
1:20
140
1.0
141
20.0
290
     0
  0
SCALE
  5
BF
102
{ACAD_REACTORS
330
B6
102
}
330
B6
100
AcDbScale
 70
     0
300
1:30
140
1.0
141
30.0
290
     0
  0
SCALE
  5
C0
102
{ACAD_REACTORS
330
B6
102
}
330
B6
100
AcDbScale
 70
     0
300
1:40
140
1.0
141
40.0
290
     0
  0
SCALE
  5
C1
102
{ACAD_REACTORS
330
B6
102
}
330
B6
100
AcDbScale
 70
     0
300
1:50
140
1.0
141
50.0
290
     0
  0
SCALE
  5
C2
102
{ACAD_REACTORS
330
B6
102
}
330
B6
100
AcDbScale
 70
     0
300
1:100
140
1.0
141
100.0
290
     0
  0
SCALE
  5
C3
102
{ACAD_REACTORS
330
B6
102
}
330
B6
100
AcDbScale
 70
     0
300
2:1
140
2.0
141
1.0
290
     0
  0
SCALE
  5
C4
102
{ACAD_REACTORS
330
B6
102
}
330
B6
100
AcDbScale
 70
     0
300
4:1
140
4.0
141
1.0
290
     0
  0
SCALE
  5
C5
102
{ACAD_REACTORS
330
B6
102
}
330
B6
100
AcDbScale
 70
     0
300
8:1
140
8.0
141
1.0
290
     0
  0
SCALE
  5
C6
102
{ACAD_REACTORS
330
B6
102
}
330
B6
100
AcDbScale
 70
     0
300
10:1
140
10.0
141
1.0
290
     0
  0
SCALE
  5
C7
102
{ACAD_REACTORS
330
B6
102
}
330
B6
100
AcDbScale
 70
     0
300
100:1
140
100.0
141
1.0
290
     0
  0
SCALE
  5
C8
102
{ACAD_REACTORS
330
B6
102
}
330
B6
100
AcDbScale
 70
     0
300
1/128" = 1'-0"
140
0.0078125
141
12.0
290
     0
  0
SCALE
  5
C9
102
{ACAD_REACTORS
330
B6
102
}
330
B6
100
AcDbScale
 70
     0
300
1/64" = 1'-0"
140
0.015625
141
12.0
290
     0
  0
SCALE
  5
CA
102
{ACAD_REACTORS
330
B6
102
}
330
B6
100
AcDbScale
 70
     0
300
1/32" = 1'-0"
140
0.03125
141
12.0
290
     0
  0
SCALE
  5
CB
102
{ACAD_REACTORS
330
B6
102
}
330
B6
100
AcDbScale
 70
     0
300
1/16" = 1'-0"
140
0.0625
141
12.0
290
     0
  0
SCALE
  5
CC
102
{ACAD_REACTORS
330
B6
102
}
330
B6
100
AcDbScale
 70
     0
300
3/32" = 1'-0"
140
0.09375
141
12.0
290
     0
  0
SCALE
  5
CD
102
{ACAD_REACTORS
330
B6
102
}
330
B6
100
AcDbScale
 70
     0
300
1/8" = 1'-0"
140
0.125
141
12.0
290
     0
  0
SCALE
  5
CE
102
{ACAD_REACTORS
330
B6
102
}
330
B6
100
AcDbScale
 70
     0
300
3/16" = 1'-0"
140
0.1875
141
12.0
290
     0
  0
SCALE
  5
CF
102
{ACAD_REACTORS
330
B6
102
}
330
B6
100
AcDbScale
 70
     0
300
1/4" = 1'-0"
140
0.25
141
12.0
290
     0
  0
SCALE
  5
D0
102
{ACAD_REACTORS
330
B6
102
}
330
B6
100
AcDbScale
 70
     0
300
3/8" = 1'-0"
140
0.375
141
12.0
290
     0
  0
SCALE
  5
D1
102
{ACAD_REACTORS
330
B6
102
}
330
B6
100
AcDbScale
 70
     0
300
1/2" = 1'-0"
140
0.5
141
12.0
290
     0
  0
SCALE
  5
D2
102
{ACAD_REACTORS
330
B6
102
}
330
B6
100
AcDbScale
 70
     0
300
3/4" = 1'-0"
140
0.75
141
12.0
290
     0
  0
SCALE
  5
D3
102
{ACAD_REACTORS
330
B6
102
}
330
B6
100
AcDbScale
 70
     0
300
1" = 1'-0"
140
1.0
141
12.0
290
     0
  0
SCALE
  5
D4
102
{ACAD_REACTORS
330
B6
102
}
330
B6
100
AcDbScale
 70
     0
300
1-1/2" = 1'-0"
140
1.5
141
12.0
290
     0
  0
SCALE
  5
D5
102
{ACAD_REACTORS
330
B6
102
}
330
B6
100
AcDbScale
 70
     0
300
3" = 1'-0"
140
3.0
141
12.0
290
     0
  0
SCALE
  5
D6
102
{ACAD_REACTORS
330
B6
102
}
330
B6
100
AcDbScale
 70
     0
300
6" = 1'-0"
140
6.0
141
12.0
290
     0
  0
SCALE
  5
D7
102
{ACAD_REACTORS
330
B6
102
}
330
B6
100
AcDbScale
 70
     0
300
1'-0" = 1'-0"
140
12.0
141
12.0
290
     0
  0
DICTIONARYVAR
  5
67
102
{ACAD_REACTORS
330
66
102
}
330
66
100
DictionaryVariables
280
     0
  1
2
  0
DICTIONARYVAR
  5
6B
102
{ACAD_REACTORS
330
66
102
}
330
66
100
DictionaryVariables
280
     0
  1
1
  0
ENDSEC
  0
EOF
