  0
SECTION
  2
HEADER
  9
$ACADVER
  1
AC1009
  9
$DWGCODEPAGE
  3
ansi_1252
  9
$INSBASE
  10
0.0
  20
0.0
  30
0.0
  9
$EXTMIN
  10
12.4217
  20
108.269
  30
0.0
  9
$EXTMAX
  10
754.443
  20
597.071
  30
0.0
  0
ENDSEC
  0
SECTION
  2
ENTITIES
  0
POLYLINE
  62
3
  0
VERTEX
  10
499.5061
  20
112.05206
  0
VERTEX
  10
499.74414
  20
127.72791
  0
SEQEND
  0
POLYLINE
  62
3
  0
VERTEX
  10
499.76114
  20
131.75232
  0
VERTEX
  10
499.84686
  20
135.72113
  0
SEQEND
  0
POLYLINE
  62
3
  0
VERTEX
  10
499.86383
  20
139.74567
  0
VERTEX
  10
500.21707
  20
159.70764
  0
SEQEND
  0
POLYLINE
  62
3
  0
VERTEX
  10
500.23407
  20
163.73199
  0
VERTEX
  10
500.31323
  20
167.76312
  0
SEQEND
  0
POLYLINE
  62
3
  0
VERTEX
  10
500.39893
  20
171.73193
  0
VERTEX
  10
500.68347
  20
191.74951
  0
SEQEND
  0
POLYLINE
  62
3
  0
VERTEX
  10
500.707
  20
195.71191
  0
VERTEX
  10
500.78619
  20
199.74286
  0
SEQEND
  0
POLYLINE
  62
3
  0
VERTEX
  10
500.87186
  20
203.71173
  0
VERTEX
  10
501.15637
  20
223.72943
  0
SEQEND
  0
POLYLINE
  62
3
  0
VERTEX
  10
501.23553
  20
227.76038
  0
VERTEX
  10
501.25909
  20
231.7226
  0
SEQEND
  0
POLYLINE
  62
3
  0
VERTEX
  10
501.3382
  20
235.75366
  0
VERTEX
  10
501.62274
  20
255.77124
  0
SEQEND
  0
POLYLINE
  62
3
  0
VERTEX
  10
501.70847
  20
259.74023
  0
VERTEX
  10
501.72546
  20
263.76465
  0
SEQEND
  0
POLYLINE
  62
3
  0
VERTEX
  10
501.81113
  20
267.73346
  0
VERTEX
  10
502.04919
  20
283.40918
  0
SEQEND
  0
POLYLINE
  62
0
  70
1
  0
VERTEX
  10
427.80246
  20
282.95953
  0
VERTEX
  10
426.21851
  20
197.56244
  0
VERTEX
  10
425.48868
  20
154.87042
  0
VERTEX
  10
425.15488
  20
133.52771
  0
VERTEX
  10
425.02228
  20
122.82843
  0
VERTEX
  10
425.01819
  20
117.48535
  0
VERTEX
  10
424.98178
  20
114.84161
  0
VERTEX
  10
424.99466
  20
113.52307
  0
VERTEX
  10
425.07623
  20
112.14886
  0
VERTEX
  10
445.83987
  20
111.94281
  0
VERTEX
  10
466.58395
  20
111.92303
  0
VERTEX
  10
487.38361
  20
111.97223
  0
VERTEX
  10
508.17023
  20
112.14557
  0
VERTEX
  10
528.93726
  20
112.50549
  0
VERTEX
  10
549.69775
  20
112.92761
  0
VERTEX
  10
570.43201
  20
113.59833
  0
VERTEX
  10
591.21545
  20
114.39996
  0
VERTEX
  10
611.97925
  20
115.38806
  0
VERTEX
  10
622.35144
  20
115.97546
  0
VERTEX
  10
632.71045
  20
116.68707
  0
VERTEX
  10
643.06946
  20
117.39874
  0
VERTEX
  10
653.41547
  20
118.23468
  0
VERTEX
  10
663.75494
  20
119.13287
  0
VERTEX
  10
674.07477
  20
120.21753
  0
VERTEX
  10
684.38806
  20
121.36438
  0
VERTEX
  10
694.68176
  20
122.69769
  0
VERTEX
  10
704.95587
  20
124.21753
  0
VERTEX
  10
710.08313
  20
125.07068
  0
VERTEX
  10
715.20386
  20
125.98602
  0
VERTEX
  10
720.24933
  20
127.01923
  0
VERTEX
  10
725.35046
  20
128.12097
  0
VERTEX
  10
730.36975
  20
129.40283
  0
VERTEX
  10
735.44476
  20
130.7533
  0
VERTEX
  10
740.43799
  20
132.28381
  0
VERTEX
  10
742.86584
  20
133.10468
  0
VERTEX
  10
745.3429
  20
134.05634
  0
VERTEX
  10
747.68903
  20
135.05725
  0
VERTEX
  10
750.01556
  20
136.24457
  0
VERTEX
  10
752.26685
  20
137.54968
  0
VERTEX
  10
754.44287
  20
138.97266
  0
VERTEX
  10
736.6571
  20
308.19318
  0
VERTEX
  10
727.3219
  20
305.51495
  0
VERTEX
  10
717.91797
  20
302.89233
  0
VERTEX
  10
708.55652
  20
300.46289
  0
VERTEX
  10
699.0578
  20
298.14447
  0
VERTEX
  10
689.60156
  20
296.01917
  0
VERTEX
  10
680.05701
  20
294.13617
  0
VERTEX
  10
670.49292
  20
292.43945
  0
VERTEX
  10
660.84045
  20
290.98492
  0
VERTEX
  10
651.22412
  20
289.78571
  0
VERTEX
  10
641.53247
  20
288.70416
  0
VERTEX
  10
631.88342
  20
287.81573
  0
VERTEX
  10
622.15906
  20
287.0451
  0
VERTEX
  10
612.47742
  20
286.46747
  0
VERTEX
  10
602.73346
  20
285.88336
  0
VERTEX
  10
593.0387
  20
285.43005
  0
VERTEX
  10
583.33728
  20
285.03894
  0
VERTEX
  10
563.91504
  20
284.44336
  0
VERTEX
  10
544.47314
  20
284.03412
  0
VERTEX
  10
525.02478
  20
283.68713
  0
VERTEX
  10
505.56326
  20
283.46429
  0
VERTEX
  10
466.68939
  20
283.14978
  0
VERTEX
  10
427.80246
  20
282.95953
  0
SEQEND
  0
POLYLINE
  62
3
  0
VERTEX
  10
630.22339
  20
236.15131
  0
VERTEX
  10
558.88501
  20
161.50537
  0
SEQEND
  0
POLYLINE
  62
3
  0
VERTEX
  10
549.92523
  20
222.64386
  0
VERTEX
  10
638.65637
  20
180.02527
  0
SEQEND
  0
POLYLINE
  62
3
  0
VERTEX
  10
268.22101
  20
108.32965
  0
VERTEX
  10
267.70941
  20
123.9989
  0
SEQEND
  0
POLYLINE
  62
3
  0
VERTEX
  10
267.62219
  20
128.02258
  0
VERTEX
  10
267.46722
  20
131.9892
  0
SEQEND
  0
POLYLINE
  62
3
  0
VERTEX
  10
267.38
  20
136.01288
  0
VERTEX
  10
266.67844
  20
155.9657
  0
SEQEND
  0
POLYLINE
  62
3
  0
VERTEX
  10
266.59119
  20
159.98926
  0
VERTEX
  10
266.44168
  20
164.01825
  0
SEQEND
  0
POLYLINE
  62
3
  0
VERTEX
  10
266.28674
  20
167.98499
  0
VERTEX
  10
265.65289
  20
187.99469
  0
SEQEND
  0
POLYLINE
  62
3
  0
VERTEX
  10
265.56018
  20
191.95587
  0
VERTEX
  10
265.41071
  20
195.98499
  0
SEQEND
  0
POLYLINE
  62
3
  0
VERTEX
  10
265.2612
  20
200.01398
  0
VERTEX
  10
264.62192
  20
219.96136
  0
SEQEND
  0
POLYLINE
  62
3
  0
VERTEX
  10
264.47241
  20
223.99036
  0
VERTEX
  10
264.3797
  20
227.95172
  0
SEQEND
  0
POLYLINE
  62
3
  0
VERTEX
  10
264.23026
  20
231.98071
  0
VERTEX
  10
263.59637
  20
251.99042
  0
SEQEND
  0
POLYLINE
  62
3
  0
VERTEX
  10
263.44141
  20
255.95709
  0
VERTEX
  10
263.35419
  20
259.98071
  0
SEQEND
  0
POLYLINE
  62
3
  0
VERTEX
  10
263.19925
  20
263.94739
  0
VERTEX
  10
262.68762
  20
279.6167
  0
SEQEND
  0
POLYLINE
  62
0
  0
VERTEX
  10
12.852776
  20
130.79688
  0
VERTEX
  10
27.682495
  20
300.30237
  0
SEQEND
  0
POLYLINE
  62
0
  0
VERTEX
  10
12.852776
  20
130.79688
  0
VERTEX
  10
15.053337
  20
129.41211
  0
VERTEX
  10
17.327068
  20
128.14642
  0
VERTEX
  10
19.673965
  20
126.99982
  0
VERTEX
  10
22.037216
  20
126.0401
  0
VERTEX
  10
24.530453
  20
125.13171
  0
VERTEX
  10
26.972324
  20
124.35339
  0
VERTEX
  10
31.991489
  20
122.91028
  0
VERTEX
  10
37.089275
  20
121.6485
  0
VERTEX
  10
42.130234
  20
120.45453
  0
VERTEX
  10
47.249813
  20
119.44189
  0
VERTEX
  10
52.318008
  20
118.5592
  0
VERTEX
  10
57.448486
  20
117.67114
  0
VERTEX
  10
62.589851
  20
116.90759
  0
VERTEX
  10
72.888939
  20
115.56732
  0
VERTEX
  10
83.204361
  20
114.41382
  0
VERTEX
  10
93.536125
  20
113.4472
  0
VERTEX
  10
103.87334
  20
112.54285
  0
VERTEX
  10
114.22691
  20
111.8252
  0
VERTEX
  10
124.58593
  20
111.16998
  0
VERTEX
  10
134.95584
  20
110.63916
  0
VERTEX
  10
145.32571
  20
110.1084
  0
VERTEX
  10
155.70654
  20
109.70221
  0
VERTEX
  10
176.4845
  20
109.07666
  0
VERTEX
  10
197.27879
  20
108.63782
  0
VERTEX
  10
218.0217
  20
108.32904
  0
VERTEX
  10
238.78644
  20
108.26935
  0
VERTEX
  10
259.55658
  20
108.27191
  0
VERTEX
  10
280.34311
  20
108.46136
  0
VERTEX
  10
301.1405
  20
108.77533
  0
VERTEX
  10
321.88107
  20
109.15698
  0
VERTEX
  10
342.638
  20
109.7254
  0
VERTEX
  10
342.69556
  20
111.10089
  0
VERTEX
  10
342.68542
  20
112.41949
  0
VERTEX
  10
342.60291
  20
115.06213
  0
VERTEX
  10
342.50555
  20
120.40436
  0
VERTEX
  10
342.18622
  20
131.09961
  0
VERTEX
  10
341.48001
  20
152.43335
  0
VERTEX
  10
340.00522
  20
195.10626
  0
VERTEX
  10
336.93103
  20
280.46283
  0
VERTEX
  10
298.04666
  20
279.97437
  0
VERTEX
  10
259.17316
  20
279.61035
  0
VERTEX
  10
239.71072
  20
279.49335
  0
VERTEX
  10
220.25916
  20
279.50098
  0
VERTEX
  10
200.81306
  20
279.5708
  0
VERTEX
  10
181.38876
  20
279.88971
  0
VERTEX
  10
171.67661
  20
280.04913
  0
VERTEX
  10
161.97536
  20
280.33319
  0
VERTEX
  10
152.22272
  20
280.74719
  0
VERTEX
  10
142.53783
  20
281.21802
  0
VERTEX
  10
132.79608
  20
281.75659
  0
VERTEX
  10
123.13297
  20
282.47638
  0
VERTEX
  10
113.42392
  20
283.38861
  0
VERTEX
  10
103.78804
  20
284.41992
  0
VERTEX
  10
94.111679
  20
285.70569
  0
VERTEX
  10
84.519394
  20
287.23511
  0
VERTEX
  10
74.943443
  20
288.95148
  0
VERTEX
  10
65.451553
  20
290.91138
  0
VERTEX
  10
55.913742
  20
293.06354
  0
VERTEX
  10
46.516823
  20
295.39166
  0
VERTEX
  10
37.063072
  20
297.78748
  0
VERTEX
  10
27.682495
  20
300.30237
  0
SEQEND
  0
POLYLINE
  62
3
  0
VERTEX
  10
213.7627
  20
164.91833
  0
VERTEX
  10
134.9035
  20
224.93994
  0
SEQEND
  0
POLYLINE
  62
3
  0
VERTEX
  10
132.25258
  20
165.7254
  0
VERTEX
  10
214.82898
  20
220.47705
  0
SEQEND
  0
POLYLINE
  62
0
  0
VERTEX
  10
696.34448
  20
583.49823
  0
VERTEX
  10
696.34448
  20
584.68591
  0
SEQEND
  0
POLYLINE
  62
0
  0
VERTEX
  10
696.34448
  20
434.91183
  0
VERTEX
  10
696.34448
  20
436.16205
  0
SEQEND
  0
POLYLINE
  62
0
  70
1
  0
VERTEX
  10
733.53802
  20
516.76874
  0
VERTEX
  10
733.50562
  20
517.08997
  0
VERTEX
  10
733.41278
  20
517.38916
  0
VERTEX
  10
733.26587
  20
517.65991
  0
VERTEX
  10
733.07117
  20
517.89587
  0
VERTEX
  10
732.83521
  20
518.09058
  0
VERTEX
  10
732.56445
  20
518.23749
  0
VERTEX
  10
732.26526
  20
518.33032
  0
VERTEX
  10
731.94403
  20
518.36273
  0
VERTEX
  10
731.62268
  20
518.33032
  0
VERTEX
  10
731.32349
  20
518.23749
  0
VERTEX
  10
731.05273
  20
518.09058
  0
VERTEX
  10
730.81677
  20
517.89587
  0
VERTEX
  10
730.62207
  20
517.65991
  0
VERTEX
  10
730.47516
  20
517.38916
  0
VERTEX
  10
730.38232
  20
517.08997
  0
VERTEX
  10
730.34991
  20
516.76874
  0
VERTEX
  10
730.38232
  20
516.44751
  0
VERTEX
  10
730.47516
  20
516.14832
  0
VERTEX
  10
730.62207
  20
515.87756
  0
VERTEX
  10
730.81677
  20
515.6416
  0
VERTEX
  10
731.05273
  20
515.4469
  0
VERTEX
  10
731.32349
  20
515.29999
  0
VERTEX
  10
731.62268
  20
515.20715
  0
VERTEX
  10
731.94403
  20
515.17474
  0
VERTEX
  10
732.26526
  20
515.20715
  0
VERTEX
  10
732.56445
  20
515.29999
  0
VERTEX
  10
732.83521
  20
515.4469
  0
VERTEX
  10
733.07117
  20
515.6416
  0
VERTEX
  10
733.26587
  20
515.87756
  0
VERTEX
  10
733.41278
  20
516.14832
  0
VERTEX
  10
733.50562
  20
516.44751
  0
VERTEX
  10
733.53802
  20
516.76874
  0
SEQEND
  0
POLYLINE
  62
0
  0
VERTEX
  10
714.84741
  20
465.47925
  0
VERTEX
  10
677.77899
  20
465.47925
  0
SEQEND
  0
POLYLINE
  62
0
  0
VERTEX
  10
677.77899
  20
529.177
  0
VERTEX
  10
714.84741
  20
529.177
  0
SEQEND
  0
POLYLINE
  62
0
  0
VERTEX
  10
677.81024
  20
529.2395
  0
VERTEX
  10
677.48108
  20
529.2229
  0
VERTEX
  10
677.16138
  20
529.17407
  0
VERTEX
  10
676.85291
  20
529.09473
  0
VERTEX
  10
676.55713
  20
528.98651
  0
VERTEX
  10
676.27576
  20
528.85095
  0
VERTEX
  10
676.01038
  20
528.6897
  0
VERTEX
  10
675.76251
  20
528.50433
  0
VERTEX
  10
675.53387
  20
528.29657
  0
VERTEX
  10
675.32611
  20
528.06793
  0
VERTEX
  10
675.14075
  20
527.82007
  0
VERTEX
  10
674.97949
  20
527.55469
  0
VERTEX
  10
674.84393
  20
527.27332
  0
VERTEX
  10
674.73572
  20
526.97754
  0
VERTEX
  10
674.65637
  20
526.66907
  0
VERTEX
  10
674.60767
  20
526.34937
  0
VERTEX
  10
674.591
  20
526.0202
  0
SEQEND
  0
POLYLINE
  62
0
  0
VERTEX
  10
674.591
  20
468.66727
  0
VERTEX
  10
674.591
  20
525.98895
  0
SEQEND
  0
POLYLINE
  62
0
  0
VERTEX
  10
674.591
  20
468.69852
  0
VERTEX
  10
674.60767
  20
468.36935
  0
VERTEX
  10
674.65637
  20
468.04971
  0
VERTEX
  10
674.73572
  20
467.74121
  0
VERTEX
  10
674.84393
  20
467.4454
  0
VERTEX
  10
674.97949
  20
467.164
  0
VERTEX
  10
675.14075
  20
466.89856
  0
VERTEX
  10
675.32611
  20
466.65073
  0
VERTEX
  10
675.53387
  20
466.42212
  0
VERTEX
  10
675.76251
  20
466.21436
  0
VERTEX
  10
676.01038
  20
466.02905
  0
VERTEX
  10
676.27576
  20
465.8678
  0
VERTEX
  10
676.55713
  20
465.73224
  0
VERTEX
  10
676.85291
  20
465.62396
  0
VERTEX
  10
677.16138
  20
465.54465
  0
VERTEX
  10
677.48108
  20
465.49585
  0
VERTEX
  10
677.81024
  20
465.47925
  0
SEQEND
  0
POLYLINE
  62
0
  0
VERTEX
  10
718.03546
  20
525.98895
  0
VERTEX
  10
718.03546
  20
468.66727
  0
SEQEND
  0
POLYLINE
  62
0
  0
VERTEX
  10
714.87872
  20
465.47925
  0
VERTEX
  10
715.20789
  20
465.49585
  0
VERTEX
  10
715.52759
  20
465.54465
  0
VERTEX
  10
715.83606
  20
465.62396
  0
VERTEX
  10
716.13184
  20
465.73224
  0
VERTEX
  10
716.41321
  20
465.8678
  0
VERTEX
  10
716.67859
  20
466.02905
  0
VERTEX
  10
716.92645
  20
466.21436
  0
VERTEX
  10
717.15509
  20
466.42212
  0
VERTEX
  10
717.36285
  20
466.65073
  0
VERTEX
  10
717.54822
  20
466.89856
  0
VERTEX
  10
717.70947
  20
467.164
  0
VERTEX
  10
717.84503
  20
467.4454
  0
VERTEX
  10
717.95325
  20
467.74121
  0
VERTEX
  10
718.03259
  20
468.04971
  0
VERTEX
  10
718.08142
  20
468.36935
  0
VERTEX
  10
718.09802
  20
468.69852
  0
SEQEND
  0
POLYLINE
  62
0
  0
VERTEX
  10
718.09802
  20
526.0202
  0
VERTEX
  10
718.08142
  20
526.34937
  0
VERTEX
  10
718.03259
  20
526.66907
  0
VERTEX
  10
717.95325
  20
526.97754
  0
VERTEX
  10
717.84503
  20
527.27332
  0
VERTEX
  10
717.70947
  20
527.55469
  0
VERTEX
  10
717.54822
  20
527.82007
  0
VERTEX
  10
717.36285
  20
528.06793
  0
VERTEX
  10
717.15509
  20
528.29657
  0
VERTEX
  10
716.92645
  20
528.50433
  0
VERTEX
  10
716.67859
  20
528.6897
  0
VERTEX
  10
716.41321
  20
528.85095
  0
VERTEX
  10
716.13184
  20
528.98651
  0
VERTEX
  10
715.83606
  20
529.09473
  0
VERTEX
  10
715.52759
  20
529.17407
  0
VERTEX
  10
715.20789
  20
529.2229
  0
VERTEX
  10
714.87872
  20
529.2395
  0
SEQEND
  0
POLYLINE
  62
0
  0
VERTEX
  10
696.34448
  20
585.37354
  0
VERTEX
  10
697.90723
  20
585.37354
  0
VERTEX
  10
699.46991
  20
585.31104
  0
VERTEX
  10
701.09521
  20
585.12347
  0
VERTEX
  10
702.65802
  20
584.81091
  0
VERTEX
  10
705.72095
  20
584.12329
  0
VERTEX
  10
708.78394
  20
583.18567
  0
VERTEX
  10
711.78448
  20
582.12299
  0
VERTEX
  10
714.72241
  20
580.9353
  0
VERTEX
  10
717.5979
  20
579.56006
  0
VERTEX
  10
720.41083
  20
578.05981
  0
VERTEX
  10
723.16132
  20
576.43457
  0
VERTEX
  10
725.78674
  20
574.68427
  0
VERTEX
  10
728.34955
  20
572.80896
  0
VERTEX
  10
730.85004
  20
570.87122
  0
VERTEX
  10
733.2254
  20
568.74585
  0
VERTEX
  10
735.53827
  20
566.49548
  0
VERTEX
  10
737.66364
  20
564.12012
  0
VERTEX
  10
739.7265
  20
561.68219
  0
VERTEX
  10
741.60175
  20
559.11926
  0
VERTEX
  10
743.35199
  20
556.4314
  0
VERTEX
  10
744.91473
  20
553.68091
  0
VERTEX
  10
746.28998
  20
550.80542
  0
VERTEX
  10
747.54022
  20
547.86743
  0
VERTEX
  10
748.60284
  20
544.867
  0
VERTEX
  10
749.47803
  20
541.80396
  0
VERTEX
  10
750.16565
  20
538.67847
  0
VERTEX
  10
750.66571
  20
535.55298
  0
VERTEX
  10
751.04071
  20
532.36499
  0
VERTEX
  10
751.22827
  20
529.177
  0
VERTEX
  10
751.29083
  20
525.98895
  0
VERTEX
  10
751.22827
  20
522.80096
  0
VERTEX
  10
750.97827
  20
519.67548
  0
VERTEX
  10
750.66571
  20
516.48743
  0
VERTEX
  10
750.22815
  20
513.36194
  0
VERTEX
  10
749.66553
  20
510.23645
  0
VERTEX
  10
749.04047
  20
507.11093
  0
VERTEX
  10
748.29034
  20
503.98541
  0
VERTEX
  10
747.47766
  20
500.92242
  0
VERTEX
  10
746.54004
  20
497.92197
  0
VERTEX
  10
745.53992
  20
494.85898
  0
VERTEX
  10
744.41473
  20
491.92099
  0
VERTEX
  10
743.22699
  20
488.9205
  0
VERTEX
  10
741.97681
  20
486.04504
  0
VERTEX
  10
740.60156
  20
483.16959
  0
VERTEX
  10
737.53857
  20
477.6062
  0
VERTEX
  10
736.10083
  20
474.79324
  0
VERTEX
  10
734.72565
  20
471.91779
  0
VERTEX
  10
733.53802
  20
468.97983
  0
VERTEX
  10
732.41278
  20
465.97934
  0
VERTEX
  10
731.3501
  20
462.97885
  0
VERTEX
  10
730.72498
  20
461.54111
  0
VERTEX
  10
730.03741
  20
460.10339
  0
VERTEX
  10
728.47461
  20
457.29044
  0
VERTEX
  10
726.78687
  20
454.60251
  0
VERTEX
  10
724.91156
  20
452.03958
  0
VERTEX
  10
722.97375
  20
449.53918
  0
VERTEX
  10
720.84839
  20
447.16382
  0
VERTEX
  10
718.66058
  20
444.85095
  0
VERTEX
  10
716.34766
  20
442.66309
  0
VERTEX
  10
713.90979
  20
440.66278
  0
VERTEX
  10
712.59711
  20
439.72513
  0
VERTEX
  10
711.28436
  20
438.84998
  0
VERTEX
  10
709.90918
  20
437.97482
  0
VERTEX
  10
708.53394
  20
437.2247
  0
VERTEX
  10
707.09625
  20
436.53711
  0
VERTEX
  10
705.65845
  20
435.91199
  0
VERTEX
  10
704.15826
  20
435.41193
  0
VERTEX
  10
702.59546
  20
434.91183
  0
VERTEX
  10
701.03271
  20
434.5993
  0
VERTEX
  10
699.46991
  20
434.34924
  0
VERTEX
  10
697.90723
  20
434.22424
  0
VERTEX
  10
696.34448
  20
434.22424
  0
SEQEND
  0
POLYLINE
  62
3
  70
1
  0
VERTEX
  10
701.65784
  20
562.43231
  0
VERTEX
  10
701.65784
  20
546.42975
  0
VERTEX
  10
696.34448
  20
546.42975
  0
VERTEX
  10
694.03162
  20
547.17987
  0
VERTEX
  10
692.53137
  20
548.74261
  0
VERTEX
  10
691.71875
  20
550.24286
  0
VERTEX
  10
690.96863
  20
552.55573
  0
VERTEX
  10
690.96863
  20
556.30634
  0
VERTEX
  10
691.71875
  20
558.6192
  0
VERTEX
  10
692.53137
  20
560.11945
  0
VERTEX
  10
694.03162
  20
561.68219
  0
VERTEX
  10
696.34448
  20
562.43231
  0
VERTEX
  10
701.65784
  20
562.43231
  0
SEQEND
  0
POLYLINE
  62
0
  70
1
  0
VERTEX
  10
662.33899
  20
516.76874
  0
VERTEX
  10
662.30658
  20
517.08997
  0
VERTEX
  10
662.21375
  20
517.38916
  0
VERTEX
  10
662.06677
  20
517.65991
  0
VERTEX
  10
661.87213
  20
517.89587
  0
VERTEX
  10
661.63623
  20
518.09058
  0
VERTEX
  10
661.36548
  20
518.23749
  0
VERTEX
  10
661.06628
  20
518.33032
  0
VERTEX
  10
660.745
  20
518.36273
  0
VERTEX
  10
660.42371
  20
518.33032
  0
VERTEX
  10
660.12451
  20
518.23749
  0
VERTEX
  10
659.85376
  20
518.09058
  0
VERTEX
  10
659.61786
  20
517.89587
  0
VERTEX
  10
659.42322
  20
517.65991
  0
VERTEX
  10
659.27625
  20
517.38916
  0
VERTEX
  10
659.18341
  20
517.08997
  0
VERTEX
  10
659.151
  20
516.76874
  0
VERTEX
  10
659.18341
  20
516.44751
  0
VERTEX
  10
659.27625
  20
516.14832
  0
VERTEX
  10
659.42322
  20
515.87756
  0
VERTEX
  10
659.61786
  20
515.6416
  0
VERTEX
  10
659.85376
  20
515.4469
  0
VERTEX
  10
660.12451
  20
515.29999
  0
VERTEX
  10
660.42371
  20
515.20715
  0
VERTEX
  10
660.745
  20
515.17474
  0
VERTEX
  10
661.06628
  20
515.20715
  0
VERTEX
  10
661.36548
  20
515.29999
  0
VERTEX
  10
661.63623
  20
515.4469
  0
VERTEX
  10
661.87213
  20
515.6416
  0
VERTEX
  10
662.06677
  20
515.87756
  0
VERTEX
  10
662.21375
  20
516.14832
  0
VERTEX
  10
662.30658
  20
516.44751
  0
VERTEX
  10
662.33899
  20
516.76874
  0
SEQEND
  0
POLYLINE
  62
0
  0
VERTEX
  10
696.34448
  20
585.37354
  0
VERTEX
  10
694.71918
  20
585.37354
  0
VERTEX
  10
693.15649
  20
585.31104
  0
VERTEX
  10
691.59369
  20
585.12347
  0
VERTEX
  10
690.03094
  20
584.81091
  0
VERTEX
  10
686.90546
  20
584.12329
  0
VERTEX
  10
683.84247
  20
583.18567
  0
VERTEX
  10
680.84204
  20
582.12299
  0
VERTEX
  10
677.90405
  20
580.9353
  0
VERTEX
  10
675.0285
  20
579.56006
  0
VERTEX
  10
672.21558
  20
578.05981
  0
VERTEX
  10
669.46521
  20
576.43457
  0
VERTEX
  10
666.83972
  20
574.68427
  0
VERTEX
  10
664.27686
  20
572.80896
  0
VERTEX
  10
661.77643
  20
570.87122
  0
VERTEX
  10
659.401
  20
568.74585
  0
VERTEX
  10
657.0882
  20
566.49548
  0
VERTEX
  10
654.96283
  20
564.12012
  0
VERTEX
  10
652.90002
  20
561.68219
  0
VERTEX
  10
651.02478
  20
559.11926
  0
VERTEX
  10
649.27441
  20
556.4314
  0
VERTEX
  10
647.71167
  20
553.68091
  0
VERTEX
  10
646.33643
  20
550.80542
  0
VERTEX
  10
645.0863
  20
547.86743
  0
VERTEX
  10
644.08606
  20
544.867
  0
VERTEX
  10
643.21088
  20
541.80396
  0
VERTEX
  10
642.46088
  20
538.67847
  0
VERTEX
  10
641.96075
  20
535.55298
  0
VERTEX
  10
641.58569
  20
532.36499
  0
VERTEX
  10
641.39813
  20
529.177
  0
VERTEX
  10
641.33569
  20
525.98895
  0
VERTEX
  10
641.39813
  20
522.80096
  0
VERTEX
  10
641.64819
  20
519.67548
  0
VERTEX
  10
641.96075
  20
516.48743
  0
VERTEX
  10
642.39832
  20
513.36194
  0
VERTEX
  10
642.96088
  20
510.23645
  0
VERTEX
  10
643.58606
  20
507.11093
  0
VERTEX
  10
644.33606
  20
503.98541
  0
VERTEX
  10
645.1488
  20
500.92242
  0
VERTEX
  10
646.08643
  20
497.92197
  0
VERTEX
  10
647.08655
  20
494.85898
  0
VERTEX
  10
648.21173
  20
491.92099
  0
VERTEX
  10
649.39941
  20
488.9205
  0
VERTEX
  10
650.6496
  20
486.04504
  0
VERTEX
  10
652.02484
  20
483.16959
  0
VERTEX
  10
655.08783
  20
477.6062
  0
VERTEX
  10
656.52557
  20
474.79324
  0
VERTEX
  10
657.90076
  20
471.91779
  0
VERTEX
  10
659.0885
  20
468.97983
  0
VERTEX
  10
660.21368
  20
465.97934
  0
VERTEX
  10
661.27631
  20
462.97885
  0
VERTEX
  10
661.90149
  20
461.54111
  0
VERTEX
  10
662.58899
  20
460.10339
  0
VERTEX
  10
664.15179
  20
457.29044
  0
VERTEX
  10
665.83954
  20
454.60251
  0
VERTEX
  10
667.7149
  20
452.03958
  0
VERTEX
  10
669.65265
  20
449.53918
  0
VERTEX
  10
671.77802
  20
447.16382
  0
VERTEX
  10
673.96594
  20
444.85095
  0
VERTEX
  10
676.27875
  20
442.66309
  0
VERTEX
  10
678.71667
  20
440.66278
  0
VERTEX
  10
680.02936
  20
439.72513
  0
VERTEX
  10
681.34204
  20
438.84998
  0
VERTEX
  10
682.71722
  20
437.97482
  0
VERTEX
  10
684.09253
  20
437.2247
  0
VERTEX
  10
685.53027
  20
436.53711
  0
VERTEX
  10
686.96796
  20
435.91199
  0
VERTEX
  10
688.46826
  20
435.41193
  0
VERTEX
  10
690.03094
  20
434.91183
  0
VERTEX
  10
691.59369
  20
434.5993
  0
VERTEX
  10
693.15649
  20
434.34924
  0
VERTEX
  10
694.71918
  20
434.22424
  0
VERTEX
  10
696.34448
  20
434.22424
  0
SEQEND
  0
POLYLINE
  62
0
  0
VERTEX
  10
387.39725
  20
193.39087
  0
VERTEX
  10
387.39725
  20
139.75714
  0
SEQEND
  0
POLYLINE
  62
0
  0
VERTEX
  10
363.89346
  20
193.39087
  0
VERTEX
  10
376.52051
  20
193.39087
  0
SEQEND
  0
POLYLINE
  62
0
  0
VERTEX
  10
387.39725
  20
193.39087
  0
VERTEX
  10
389.71011
  20
193.39087
  0
SEQEND
  0
POLYLINE
  62
0
  0
VERTEX
  10
397.33633
  20
193.39087
  0
VERTEX
  10
400.02426
  20
193.39087
  0
SEQEND
  0
POLYLINE
  62
0
  0
VERTEX
  10
389.71011
  20
193.39087
  0
VERTEX
  10
389.71011
  20
198.20404
  0
SEQEND
  0
POLYLINE
  62
0
  0
VERTEX
  10
397.33633
  20
193.39087
  0
VERTEX
  10
397.33633
  20
198.20404
  0
VERTEX
  10
389.71011
  20
198.20404
  0
SEQEND
  0
POLYLINE
  62
0
  0
VERTEX
  10
363.89346
  20
139.75714
  0
VERTEX
  10
376.52051
  20
139.75714
  0
SEQEND
  0
POLYLINE
  62
0
  0
VERTEX
  10
387.39725
  20
139.75714
  0
VERTEX
  10
389.71011
  20
139.75714
  0
SEQEND
  0
POLYLINE
  62
0
  0
VERTEX
  10
397.33633
  20
139.75714
  0
VERTEX
  10
399.96176
  20
139.75714
  0
SEQEND
  0
POLYLINE
  62
0
  0
VERTEX
  10
389.71011
  20
139.75714
  0
VERTEX
  10
389.71011
  20
134.94397
  0
SEQEND
  0
POLYLINE
  62
0
  0
VERTEX
  10
397.33633
  20
139.75714
  0
VERTEX
  10
397.33633
  20
134.94397
  0
VERTEX
  10
389.71011
  20
134.94397
  0
SEQEND
  0
POLYLINE
  62
0
  0
VERTEX
  10
401.33698
  20
175.63794
  0
VERTEX
  10
400.64935
  20
186.20215
  0
VERTEX
  10
400.02426
  20
193.39087
  0
SEQEND
  0
POLYLINE
  62
0
  0
VERTEX
  10
401.38232
  20
165.6571
  0
VERTEX
  10
401.44699
  20
168.13934
  0
VERTEX
  10
401.4606
  20
170.62209
  0
VERTEX
  10
401.42319
  20
173.10458
  0
VERTEX
  10
401.33472
  20
175.58606
  0
SEQEND
  0
POLYLINE
  62
0
  0
VERTEX
  10
401.33698
  20
165.69885
  0
VERTEX
  10
401.08694
  20
157.63501
  0
SEQEND
  0
POLYLINE
  62
0
  0
VERTEX
  10
400.56265
  20
147.17834
  0
VERTEX
  10
400.76324
  20
149.7877
  0
VERTEX
  10
400.92688
  20
152.39954
  0
VERTEX
  10
401.05359
  20
155.0134
  0
VERTEX
  10
401.14337
  20
157.62891
  0
SEQEND
  0
POLYLINE
  62
0
  0
VERTEX
  10
400.52435
  20
147.19586
  0
VERTEX
  10
399.96176
  20
139.75714
  0
SEQEND
  0
POLYLINE
  62
0
  0
VERTEX
  10
376.52051
  20
193.39087
  0
VERTEX
  10
376.52051
  20
139.75714
  0
SEQEND
  0
POLYLINE
  62
0
  0
VERTEX
  10
363.89346
  20
193.39087
  0
VERTEX
  10
363.20587
  20
186.20215
  0
VERTEX
  10
362.58075
  20
175.63794
  0
SEQEND
  0
POLYLINE
  62
0
  0
VERTEX
  10
362.58304
  20
175.58606
  0
VERTEX
  10
362.49457
  20
173.10458
  0
VERTEX
  10
362.45712
  20
170.62209
  0
VERTEX
  10
362.47076
  20
168.13934
  0
VERTEX
  10
362.53543
  20
165.6571
  0
SEQEND
  0
POLYLINE
  62
0
  0
VERTEX
  10
362.76828
  20
157.63501
  0
VERTEX
  10
362.51825
  20
165.69885
  0
SEQEND
  0
POLYLINE
  62
0
  0
VERTEX
  10
362.83688
  20
157.62891
  0
VERTEX
  10
362.92664
  20
155.0134
  0
VERTEX
  10
363.05334
  20
152.39954
  0
VERTEX
  10
363.21698
  20
149.7877
  0
VERTEX
  10
363.4176
  20
147.17834
  0
SEQEND
  0
POLYLINE
  62
0
  0
VERTEX
  10
363.89346
  20
139.75714
  0
VERTEX
  10
363.33087
  20
147.19586
  0
SEQEND
  0
POLYLINE
  62
0
  0
VERTEX
  10
387.39725
  20
265.71484
  0
VERTEX
  10
387.39725
  20
212.0813
  0
SEQEND
  0
POLYLINE
  62
0
  0
VERTEX
  10
363.89346
  20
265.71484
  0
VERTEX
  10
376.52051
  20
265.71484
  0
SEQEND
  0
POLYLINE
  62
0
  0
VERTEX
  10
387.39725
  20
265.71484
  0
VERTEX
  10
389.71011
  20
265.71484
  0
SEQEND
  0
POLYLINE
  62
0
  0
VERTEX
  10
397.33633
  20
265.71484
  0
VERTEX
  10
400.02426
  20
265.71484
  0
SEQEND
  0
POLYLINE
  62
0
  0
VERTEX
  10
389.71011
  20
265.71484
  0
VERTEX
  10
389.71011
  20
270.52826
  0
SEQEND
  0
POLYLINE
  62
0
  0
VERTEX
  10
397.33633
  20
265.71484
  0
VERTEX
  10
397.33633
  20
270.52826
  0
VERTEX
  10
389.71011
  20
270.52826
  0
SEQEND
  0
POLYLINE
  62
0
  0
VERTEX
  10
363.89346
  20
212.0813
  0
VERTEX
  10
376.52051
  20
212.0813
  0
SEQEND
  0
POLYLINE
  62
0
  0
VERTEX
  10
387.39725
  20
212.0813
  0
VERTEX
  10
389.71011
  20
212.0813
  0
SEQEND
  0
POLYLINE
  62
0
  0
VERTEX
  10
397.33633
  20
212.0813
  0
VERTEX
  10
399.96176
  20
212.0813
  0
SEQEND
  0
POLYLINE
  62
0
  0
VERTEX
  10
389.71011
  20
212.0813
  0
VERTEX
  10
389.71011
  20
207.33051
  0
SEQEND
  0
POLYLINE
  62
0
  0
VERTEX
  10
397.33633
  20
212.0813
  0
VERTEX
  10
397.33633
  20
207.33051
  0
VERTEX
  10
389.71011
  20
207.33051
  0
SEQEND
  0
POLYLINE
  62
0
  0
VERTEX
  10
401.33698
  20
247.96204
  0
VERTEX
  10
400.64935
  20
258.52631
  0
VERTEX
  10
400.02426
  20
265.71484
  0
SEQEND
  0
POLYLINE
  62
0
  0
VERTEX
  10
401.38232
  20
237.98126
  0
VERTEX
  10
401.44699
  20
240.46347
  0
VERTEX
  10
401.4606
  20
242.9462
  0
VERTEX
  10
401.42319
  20
245.42868
  0
VERTEX
  10
401.33472
  20
247.91016
  0
SEQEND
  0
POLYLINE
  62
0
  0
VERTEX
  10
401.33698
  20
238.02295
  0
VERTEX
  10
401.08694
  20
230.02167
  0
SEQEND
  0
POLYLINE
  62
0
  0
VERTEX
  10
400.56265
  20
219.50238
  0
VERTEX
  10
400.76324
  20
222.11177
  0
VERTEX
  10
400.92688
  20
224.7236
  0
VERTEX
  10
401.05359
  20
227.33746
  0
VERTEX
  10
401.14337
  20
229.953
  0
SEQEND
  0
POLYLINE
  62
0
  0
VERTEX
  10
400.52435
  20
219.52002
  0
VERTEX
  10
399.96176
  20
212.0813
  0
SEQEND
  0
POLYLINE
  62
0
  0
VERTEX
  10
376.52051
  20
265.71484
  0
VERTEX
  10
376.52051
  20
212.0813
  0
SEQEND
  0
POLYLINE
  62
0
  0
VERTEX
  10
363.89346
  20
265.71484
  0
VERTEX
  10
363.20587
  20
258.52631
  0
VERTEX
  10
362.58075
  20
247.96204
  0
SEQEND
  0
POLYLINE
  62
0
  0
VERTEX
  10
362.58304
  20
247.91016
  0
VERTEX
  10
362.49457
  20
245.42868
  0
VERTEX
  10
362.45712
  20
242.9462
  0
VERTEX
  10
362.47076
  20
240.46347
  0
VERTEX
  10
362.53543
  20
237.98126
  0
SEQEND
  0
POLYLINE
  62
0
  0
VERTEX
  10
362.76828
  20
230.02167
  0
VERTEX
  10
362.51825
  20
238.02295
  0
SEQEND
  0
POLYLINE
  62
0
  0
VERTEX
  10
362.83688
  20
229.953
  0
VERTEX
  10
362.92664
  20
227.33746
  0
VERTEX
  10
363.05334
  20
224.7236
  0
VERTEX
  10
363.21698
  20
222.11177
  0
VERTEX
  10
363.4176
  20
219.50238
  0
SEQEND
  0
POLYLINE
  62
0
  0
VERTEX
  10
363.89346
  20
212.0813
  0
VERTEX
  10
363.33087
  20
219.52002
  0
SEQEND
  0
POLYLINE
  62
0
  0
VERTEX
  10
519.88452
  20
335.98901
  0
VERTEX
  10
520.57922
  20
332.04916
  0
VERTEX
  10
615.13599
  20
348.72205
  0
SEQEND
  0
POLYLINE
  62
0
  0
VERTEX
  10
522.46796
  20
321.33768
  0
VERTEX
  10
526.77728
  20
296.89819
  0
SEQEND
  0
POLYLINE
  62
0
  0
VERTEX
  10
516.25903
  20
356.55023
  0
VERTEX
  10
517.10571
  20
351.74847
  0
VERTEX
  10
512.36554
  20
350.91266
  0
VERTEX
  10
515.14435
  20
335.1532
  0
VERTEX
  10
519.88452
  20
335.98901
  0
SEQEND
  0
POLYLINE
  62
0
  0
VERTEX
  10
538.99347
  20
363.6178
  0
VERTEX
  10
536.11041
  20
362.86548
  0
VERTEX
  10
533.23706
  20
362.07794
  0
VERTEX
  10
530.3739
  20
361.25528
  0
VERTEX
  10
527.52106
  20
360.39764
  0
VERTEX
  10
524.67896
  20
359.50513
  0
VERTEX
  10
521.8479
  20
358.57776
  0
VERTEX
  10
519.0282
  20
357.61569
  0
VERTEX
  10
516.22028
  20
356.61902
  0
SEQEND
  0
POLYLINE
  62
0
  0
VERTEX
  10
570.19171
  20
369.715
  0
VERTEX
  10
566.26117
  20
369.15094
  0
VERTEX
  10
562.3396
  20
368.53119
  0
VERTEX
  10
558.42767
  20
367.85583
  0
VERTEX
  10
554.52588
  20
367.125
  0
VERTEX
  10
550.63489
  20
366.33881
  0
VERTEX
  10
546.75531
  20
365.49734
  0
VERTEX
  10
542.8877
  20
364.60071
  0
VERTEX
  10
539.03259
  20
363.64905
  0
SEQEND
  0
POLYLINE
  62
0
  0
VERTEX
  10
610.87006
  20
372.91528
  0
VERTEX
  10
594.46631
  20
371.9906
  0
VERTEX
  10
586.31152
  20
371.44131
  0
VERTEX
  10
578.20007
  20
370.64578
  0
VERTEX
  10
570.13214
  20
369.604
  0
SEQEND
  0
POLYLINE
  62
0
  0
VERTEX
  10
614.44128
  20
352.66193
  0
VERTEX
  10
615.13599
  20
348.72205
  0
SEQEND
  0
POLYLINE
  62
0
  0
VERTEX
  10
617.02472
  20
338.01056
  0
VERTEX
  10
621.29065
  20
313.81732
  0
SEQEND
  0
POLYLINE
  62
0
  0
VERTEX
  10
610.87006
  20
372.91528
  0
VERTEX
  10
611.66248
  20
368.42139
  0
VERTEX
  10
616.34106
  20
369.24634
  0
VERTEX
  10
619.11987
  20
353.48688
  0
VERTEX
  10
614.44128
  20
352.66193
  0
SEQEND
  0
POLYLINE
  62
0
  0
VERTEX
  10
522.46796
  20
321.33768
  0
VERTEX
  10
617.02472
  20
338.01056
  0
SEQEND
  0
POLYLINE
  62
0
  0
VERTEX
  10
526.77728
  20
296.89819
  0
VERTEX
  10
534.68945
  20
297.02383
  0
VERTEX
  10
542.61969
  20
297.40656
  0
VERTEX
  10
550.55731
  20
298.10794
  0
VERTEX
  10
558.40063
  20
298.98315
  0
VERTEX
  10
566.26233
  20
300.11548
  0
VERTEX
  10
574.09137
  20
301.43246
  0
VERTEX
  10
581.86609
  20
303.05728
  0
VERTEX
  10
589.80377
  20
304.83771
  0
VERTEX
  10
597.69818
  20
306.86447
  0
VERTEX
  10
605.54901
  20
309.13742
  0
VERTEX
  10
621.29065
  20
313.81732
  0
SEQEND
  0
POLYLINE
  62
0
  0
VERTEX
  10
635.43335
  20
356.36337
  0
VERTEX
  10
636.12805
  20
352.42352
  0
VERTEX
  10
730.68488
  20
369.09641
  0
SEQEND
  0
POLYLINE
  62
0
  0
VERTEX
  10
638.01678
  20
341.71204
  0
VERTEX
  10
642.32611
  20
317.27255
  0
SEQEND
  0
POLYLINE
  62
0
  0
VERTEX
  10
631.80786
  20
376.92459
  0
VERTEX
  10
632.65454
  20
372.12283
  0
VERTEX
  10
627.91443
  20
371.28702
  0
VERTEX
  10
630.69324
  20
355.52756
  0
VERTEX
  10
635.43335
  20
356.36337
  0
SEQEND
  0
POLYLINE
  62
0
  0
VERTEX
  10
654.60388
  20
384.00302
  0
VERTEX
  10
651.72076
  20
383.25073
  0
VERTEX
  10
648.84753
  20
382.46317
  0
VERTEX
  10
645.98425
  20
381.64053
  0
VERTEX
  10
643.13141
  20
380.78287
  0
VERTEX
  10
640.28931
  20
379.89032
  0
VERTEX
  10
637.45825
  20
378.96295
  0
VERTEX
  10
634.63867
  20
378.00089
  0
VERTEX
  10
631.83069
  20
377.00421
  0
SEQEND
  0
POLYLINE
  62
0
  0
VERTEX
  10
685.74054
  20
390.08936
  0
VERTEX
  10
681.81
  20
389.52533
  0
VERTEX
  10
677.88843
  20
388.90558
  0
VERTEX
  10
673.9765
  20
388.23022
  0
VERTEX
  10
670.07477
  20
387.49939
  0
VERTEX
  10
666.18384
  20
386.71313
  0
VERTEX
  10
662.3042
  20
385.87167
  0
VERTEX
  10
658.43652
  20
384.97504
  0
VERTEX
  10
654.58142
  20
384.02341
  0
SEQEND
  0
POLYLINE
  62
0
  0
VERTEX
  10
726.41895
  20
393.28964
  0
VERTEX
  10
710.01514
  20
392.36493
  0
VERTEX
  10
701.86029
  20
391.81567
  0
VERTEX
  10
693.81049
  20
391.03101
  0
VERTEX
  10
685.74255
  20
389.98923
  0
SEQEND
  0
POLYLINE
  62
0
  0
VERTEX
  10
729.99017
  20
373.03625
  0
VERTEX
  10
730.68488
  20
369.09641
  0
SEQEND
  0
POLYLINE
  62
0
  0
VERTEX
  10
732.57361
  20
358.38492
  0
VERTEX
  10
736.83948
  20
334.19168
  0
SEQEND
  0
POLYLINE
  62
0
  0
VERTEX
  10
726.41895
  20
393.28964
  0
VERTEX
  10
727.21136
  20
388.79572
  0
VERTEX
  10
731.95142
  20
389.63153
  0
VERTEX
  10
734.73022
  20
373.87207
  0
VERTEX
  10
729.99017
  20
373.03625
  0
SEQEND
  0
POLYLINE
  62
0
  0
VERTEX
  10
638.01678
  20
341.71204
  0
VERTEX
  10
732.57361
  20
358.38492
  0
SEQEND
  0
POLYLINE
  62
0
  0
VERTEX
  10
642.32611
  20
317.27255
  0
VERTEX
  10
650.23828
  20
317.39819
  0
VERTEX
  10
658.16852
  20
317.78088
  0
VERTEX
  10
666.10608
  20
318.4823
  0
VERTEX
  10
674.01105
  20
319.36835
  0
VERTEX
  10
681.87274
  20
320.50067
  0
VERTEX
  10
689.70172
  20
321.81766
  0
VERTEX
  10
697.4765
  20
323.4425
  0
VERTEX
  10
705.41418
  20
325.22293
  0
VERTEX
  10
713.24695
  20
327.23883
  0
VERTEX
  10
721.09784
  20
329.51178
  0
VERTEX
  10
736.83948
  20
334.19168
  0
SEQEND
  0
POLYLINE
  62
0
  0
VERTEX
  10
42.484314
  20
335.98615
  0
VERTEX
  10
43.484497
  20
335.98615
  0
SEQEND
  0
POLYLINE
  62
0
  0
VERTEX
  10
130.56097
  20
347.30045
  0
VERTEX
  10
130.56097
  20
324.73434
  0
SEQEND
  0
POLYLINE
  62
0
  0
VERTEX
  10
88.116638
  20
324.73434
  0
VERTEX
  10
88.116638
  20
347.30045
  0
SEQEND
  0
POLYLINE
  62
0
  0
VERTEX
  10
88.054138
  20
324.70309
  0
VERTEX
  10
88.070755
  20
324.37393
  0
VERTEX
  10
88.119545
  20
324.05429
  0
VERTEX
  10
88.198868
  20
323.74579
  0
VERTEX
  10
88.307121
  20
323.44998
  0
VERTEX
  10
88.442688
  20
323.16858
  0
VERTEX
  10
88.603943
  20
322.90314
  0
VERTEX
  10
88.789261
  20
322.6553
  0
VERTEX
  10
88.99704
  20
322.4267
  0
VERTEX
  10
89.225647
  20
322.21893
  0
VERTEX
  10
89.47348
  20
322.03357
  0
VERTEX
  10
89.738914
  20
321.87231
  0
VERTEX
  10
90.020325
  20
321.73676
  0
VERTEX
  10
90.316093
  20
321.62848
  0
VERTEX
  10
90.624619
  20
321.54916
  0
VERTEX
  10
90.94426
  20
321.50043
  0
VERTEX
  10
91.273407
  20
321.4838
  0
SEQEND
  0
POLYLINE
  62
0
  0
VERTEX
  10
127.37296
  20
321.54633
  0
VERTEX
  10
91.304657
  20
321.54633
  0
SEQEND
  0
POLYLINE
  62
0
  0
VERTEX
  10
127.34172
  20
321.4838
  0
VERTEX
  10
127.67087
  20
321.50043
  0
VERTEX
  10
127.99051
  20
321.54916
  0
VERTEX
  10
128.29901
  20
321.62848
  0
VERTEX
  10
128.59479
  20
321.73676
  0
VERTEX
  10
128.87619
  20
321.87231
  0
VERTEX
  10
129.14163
  20
322.03357
  0
VERTEX
  10
129.38947
  20
322.21893
  0
VERTEX
  10
129.61807
  20
322.4267
  0
VERTEX
  10
129.82584
  20
322.6553
  0
VERTEX
  10
130.01117
  20
322.90314
  0
VERTEX
  10
130.17242
  20
323.16858
  0
VERTEX
  10
130.30798
  20
323.44998
  0
VERTEX
  10
130.41623
  20
323.74579
  0
VERTEX
  10
130.49557
  20
324.05429
  0
VERTEX
  10
130.54434
  20
324.37393
  0
VERTEX
  10
130.56097
  20
324.70309
  0
SEQEND
  0
POLYLINE
  62
0
  0
VERTEX
  10
91.304657
  20
350.55103
  0
VERTEX
  10
127.37296
  20
350.55103
  0
SEQEND
  0
POLYLINE
  62
0
  0
VERTEX
  10
130.56097
  20
347.2692
  0
VERTEX
  10
130.54434
  20
347.59836
  0
VERTEX
  10
130.49557
  20
347.918
  0
VERTEX
  10
130.41623
  20
348.2265
  0
VERTEX
  10
130.30798
  20
348.52231
  0
VERTEX
  10
130.17242
  20
348.80371
  0
VERTEX
  10
130.01117
  20
349.06915
  0
VERTEX
  10
129.82584
  20
349.31699
  0
VERTEX
  10
129.61807
  20
349.54559
  0
VERTEX
  10
129.38947
  20
349.75336
  0
VERTEX
  10
129.14163
  20
349.93872
  0
VERTEX
  10
128.87619
  20
350.09998
  0
VERTEX
  10
128.59479
  20
350.23553
  0
VERTEX
  10
128.29901
  20
350.34381
  0
VERTEX
  10
127.99051
  20
350.42313
  0
VERTEX
  10
127.67087
  20
350.47186
  0
VERTEX
  10
127.34172
  20
350.48849
  0
SEQEND
  0
POLYLINE
  62
0
  0
VERTEX
  10
91.273407
  20
350.48849
  0
VERTEX
  10
90.94426
  20
350.47186
  0
VERTEX
  10
90.624619
  20
350.42313
  0
VERTEX
  10
90.316093
  20
350.34381
  0
VERTEX
  10
90.020325
  20
350.23553
  0
VERTEX
  10
89.738914
  20
350.09998
  0
VERTEX
  10
89.47348
  20
349.93872
  0
VERTEX
  10
89.225647
  20
349.75336
  0
VERTEX
  10
88.99704
  20
349.54559
  0
VERTEX
  10
88.789261
  20
349.31699
  0
VERTEX
  10
88.603943
  20
349.06915
  0
VERTEX
  10
88.442688
  20
348.80371
  0
VERTEX
  10
88.307121
  20
348.52231
  0
VERTEX
  10
88.198868
  20
348.2265
  0
VERTEX
  10
88.119545
  20
347.918
  0
VERTEX
  10
88.070755
  20
347.59836
  0
VERTEX
  10
88.054138
  20
347.2692
  0
SEQEND
  0
POLYLINE
  62
0
  70
1
  0
VERTEX
  10
135.37424
  20
345.76895
  0
VERTEX
  10
135.40662
  20
345.44775
  0
VERTEX
  10
135.4995
  20
345.14853
  0
VERTEX
  10
135.64645
  20
344.87775
  0
VERTEX
  10
135.84111
  20
344.64185
  0
VERTEX
  10
136.07703
  20
344.4472
  0
VERTEX
  10
136.34779
  20
344.30023
  0
VERTEX
  10
136.647
  20
344.20734
  0
VERTEX
  10
136.96825
  20
344.17496
  0
VERTEX
  10
137.28949
  20
344.20734
  0
VERTEX
  10
137.5887
  20
344.30023
  0
VERTEX
  10
137.85947
  20
344.4472
  0
VERTEX
  10
138.09537
  20
344.64185
  0
VERTEX
  10
138.29001
  20
344.87775
  0
VERTEX
  10
138.43698
  20
345.14853
  0
VERTEX
  10
138.52986
  20
345.44775
  0
VERTEX
  10
138.56224
  20
345.76895
  0
VERTEX
  10
138.52986
  20
346.09021
  0
VERTEX
  10
138.43698
  20
346.38943
  0
VERTEX
  10
138.29001
  20
346.66022
  0
VERTEX
  10
138.09537
  20
346.89612
  0
VERTEX
  10
137.85947
  20
347.09076
  0
VERTEX
  10
137.5887
  20
347.2377
  0
VERTEX
  10
137.28949
  20
347.33057
  0
VERTEX
  10
136.96825
  20
347.36298
  0
VERTEX
  10
136.647
  20
347.33057
  0
VERTEX
  10
136.34779
  20
347.2377
  0
VERTEX
  10
136.07703
  20
347.09076
  0
VERTEX
  10
135.84111
  20
346.89612
  0
VERTEX
  10
135.64645
  20
346.66022
  0
VERTEX
  10
135.4995
  20
346.38943
  0
VERTEX
  10
135.40662
  20
346.09021
  0
VERTEX
  10
135.37424
  20
345.76895
  0
SEQEND
  0
POLYLINE
  62
0
  70
1
  0
VERTEX
  10
96.11795
  20
357.8959
  0
VERTEX
  10
96.150337
  20
357.57471
  0
VERTEX
  10
96.24321
  20
357.27548
  0
VERTEX
  10
96.390175
  20
357.0047
  0
VERTEX
  10
96.584808
  20
356.7688
  0
VERTEX
  10
96.820717
  20
356.57416
  0
VERTEX
  10
97.091476
  20
356.42719
  0
VERTEX
  10
97.390694
  20
356.33429
  0
VERTEX
  10
97.711945
  20
356.30191
  0
VERTEX
  10
98.033188
  20
356.33429
  0
VERTEX
  10
98.332397
  20
356.42719
  0
VERTEX
  10
98.603157
  20
356.57416
  0
VERTEX
  10
98.839066
  20
356.7688
  0
VERTEX
  10
99.033707
  20
357.0047
  0
VERTEX
  10
99.180679
  20
357.27548
  0
VERTEX
  10
99.273552
  20
357.57471
  0
VERTEX
  10
99.305939
  20
357.8959
  0
VERTEX
  10
99.273552
  20
358.21716
  0
VERTEX
  10
99.180679
  20
358.51639
  0
VERTEX
  10
99.033707
  20
358.78717
  0
VERTEX
  10
98.839066
  20
359.02304
  0
VERTEX
  10
98.603157
  20
359.21771
  0
VERTEX
  10
98.332397
  20
359.36465
  0
VERTEX
  10
98.033188
  20
359.45752
  0
VERTEX
  10
97.711945
  20
359.4899
  0
VERTEX
  10
97.390694
  20
359.45752
  0
VERTEX
  10
97.091476
  20
359.36465
  0
VERTEX
  10
96.820717
  20
359.21771
  0
VERTEX
  10
96.584808
  20
359.02304
  0
VERTEX
  10
96.390175
  20
358.78717
  0
VERTEX
  10
96.24321
  20
358.51639
  0
VERTEX
  10
96.150337
  20
358.21716
  0
VERTEX
  10
96.11795
  20
357.8959
  0
SEQEND
  0
POLYLINE
  62
0
  70
1
  0
VERTEX
  10
135.37424
  20
326.20334
  0
VERTEX
  10
135.40662
  20
325.88208
  0
VERTEX
  10
135.4995
  20
325.58286
  0
VERTEX
  10
135.64645
  20
325.31207
  0
VERTEX
  10
135.84111
  20
325.0762
  0
VERTEX
  10
136.07703
  20
324.88153
  0
VERTEX
  10
136.34779
  20
324.73459
  0
VERTEX
  10
136.647
  20
324.64172
  0
VERTEX
  10
136.96825
  20
324.60934
  0
VERTEX
  10
137.28949
  20
324.64172
  0
VERTEX
  10
137.5887
  20
324.73459
  0
VERTEX
  10
137.85947
  20
324.88153
  0
VERTEX
  10
138.09537
  20
325.0762
  0
VERTEX
  10
138.29001
  20
325.31207
  0
VERTEX
  10
138.43698
  20
325.58286
  0
VERTEX
  10
138.52986
  20
325.88208
  0
VERTEX
  10
138.56224
  20
326.20334
  0
VERTEX
  10
138.52986
  20
326.52454
  0
VERTEX
  10
138.43698
  20
326.82376
  0
VERTEX
  10
138.29001
  20
327.09454
  0
VERTEX
  10
138.09537
  20
327.33044
  0
VERTEX
  10
137.85947
  20
327.52509
  0
VERTEX
  10
137.5887
  20
327.67206
  0
VERTEX
  10
137.28949
  20
327.76495
  0
VERTEX
  10
136.96825
  20
327.79733
  0
VERTEX
  10
136.647
  20
327.76495
  0
VERTEX
  10
136.34779
  20
327.67206
  0
VERTEX
  10
136.07703
  20
327.52509
  0
VERTEX
  10
135.84111
  20
327.33044
  0
VERTEX
  10
135.64645
  20
327.09454
  0
VERTEX
  10
135.4995
  20
326.82376
  0
VERTEX
  10
135.40662
  20
326.52454
  0
VERTEX
  10
135.37424
  20
326.20334
  0
SEQEND
  0
POLYLINE
  62
0
  70
1
  0
VERTEX
  10
96.11795
  20
314.07639
  0
VERTEX
  10
96.150337
  20
313.75513
  0
VERTEX
  10
96.24321
  20
313.4559
  0
VERTEX
  10
96.390175
  20
313.18512
  0
VERTEX
  10
96.584808
  20
312.94925
  0
VERTEX
  10
96.820717
  20
312.75458
  0
VERTEX
  10
97.091476
  20
312.60764
  0
VERTEX
  10
97.390694
  20
312.51477
  0
VERTEX
  10
97.711945
  20
312.48239
  0
VERTEX
  10
98.033188
  20
312.51477
  0
VERTEX
  10
98.332397
  20
312.60764
  0
VERTEX
  10
98.603157
  20
312.75458
  0
VERTEX
  10
98.839066
  20
312.94925
  0
VERTEX
  10
99.033707
  20
313.18512
  0
VERTEX
  10
99.180679
  20
313.4559
  0
VERTEX
  10
99.273552
  20
313.75513
  0
VERTEX
  10
99.305939
  20
314.07639
  0
VERTEX
  10
99.273552
  20
314.39764
  0
VERTEX
  10
99.180679
  20
314.69687
  0
VERTEX
  10
99.033707
  20
314.96765
  0
VERTEX
  10
98.839066
  20
315.20352
  0
VERTEX
  10
98.603157
  20
315.39819
  0
VERTEX
  10
98.332397
  20
315.54514
  0
VERTEX
  10
98.033188
  20
315.638
  0
VERTEX
  10
97.711945
  20
315.67038
  0
VERTEX
  10
97.390694
  20
315.638
  0
VERTEX
  10
97.091476
  20
315.54514
  0
VERTEX
  10
96.820717
  20
315.39819
  0
VERTEX
  10
96.584808
  20
315.20352
  0
VERTEX
  10
96.390175
  20
314.96765
  0
VERTEX
  10
96.24321
  20
314.69687
  0
VERTEX
  10
96.150337
  20
314.39764
  0
VERTEX
  10
96.11795
  20
314.07639
  0
SEQEND
  0
POLYLINE
  62
3
  0
VERTEX
  10
68.676056
  20
342.48721
  0
VERTEX
  10
67.925934
  20
340.17432
  0
VERTEX
  10
67.113281
  20
339.42419
  0
VERTEX
  10
65.613037
  20
338.67407
  0
VERTEX
  10
63.300171
  20
338.67407
  0
VERTEX
  10
61.799927
  20
339.42419
  0
VERTEX
  10
61.049805
  20
340.17432
  0
VERTEX
  10
60.299683
  20
342.48721
  0
VERTEX
  10
60.299683
  20
349.36331
  0
VERTEX
  10
76.302246
  20
349.36331
  0
VERTEX
  10
76.302246
  20
342.48721
  0
VERTEX
  10
75.552124
  20
340.17432
  0
VERTEX
  10
74.739502
  20
339.42419
  0
VERTEX
  10
73.239288
  20
338.67407
  0
VERTEX
  10
71.739014
  20
338.67407
  0
VERTEX
  10
70.17627
  20
339.42419
  0
VERTEX
  10
69.426147
  20
340.17432
  0
VERTEX
  10
68.676056
  20
342.48721
  0
VERTEX
  10
68.676056
  20
349.36331
  0
SEQEND
  0
POLYLINE
  62
3
  0
VERTEX
  10
72.489166
  20
332.5481
  0
VERTEX
  10
73.239288
  20
332.5481
  0
VERTEX
  10
74.739502
  20
331.79797
  0
VERTEX
  10
75.552124
  20
331.04785
  0
VERTEX
  10
76.302246
  20
329.54761
  0
VERTEX
  10
76.302246
  20
326.48462
  0
VERTEX
  10
75.552124
  20
324.98438
  0
VERTEX
  10
74.739502
  20
324.17175
  0
VERTEX
  10
73.239288
  20
323.42163
  0
VERTEX
  10
71.739014
  20
323.42163
  0
VERTEX
  10
70.17627
  20
324.17175
  0
VERTEX
  10
67.925934
  20
325.7345
  0
VERTEX
  10
60.299683
  20
333.36072
  0
VERTEX
  10
60.299683
  20
322.67151
  0
SEQEND
  0
POLYLINE
  62
0
  70
1
  0
VERTEX
  10
163.31622
  20
335.98615
  0
VERTEX
  10
163.19121
  20
334.86096
  0
VERTEX
  10
162.94118
  20
333.67325
  0
VERTEX
  10
162.50359
  20
332.61063
  0
VERTEX
  10
161.94099
  20
331.54797
  0
VERTEX
  10
161.2534
  20
330.61026
  0
VERTEX
  10
160.5658
  20
329.67264
  0
VERTEX
  10
158.94052
  20
327.92233
  0
VERTEX
  10
157.19026
  20
326.35962
  0
VERTEX
  10
155.37744
  20
324.85938
  0
VERTEX
  10
153.43964
  20
323.54663
  0
VERTEX
  10
151.50183
  20
322.23392
  0
VERTEX
  10
149.439
  20
321.04626
  0
VERTEX
  10
147.43867
  20
319.85855
  0
VERTEX
  10
143.2505
  20
317.73322
  0
VERTEX
  10
138.93732
  20
315.79541
  0
VERTEX
  10
134.56161
  20
314.10764
  0
VERTEX
  10
130.12338
  20
312.54492
  0
VERTEX
  10
125.6852
  20
311.04465
  0
VERTEX
  10
121.18448
  20
309.66943
  0
VERTEX
  10
116.68375
  20
308.35669
  0
VERTEX
  10
112.12051
  20
307.10651
  0
VERTEX
  10
107.55728
  20
306.04385
  0
VERTEX
  10
102.93155
  20
305.0437
  0
VERTEX
  10
98.305786
  20
304.16852
  0
VERTEX
  10
93.680054
  20
303.41846
  0
VERTEX
  10
88.991791
  20
302.8558
  0
VERTEX
  10
84.303528
  20
302.54327
  0
VERTEX
  10
81.990662
  20
302.4808
  0
VERTEX
  10
79.615265
  20
302.4808
  0
VERTEX
  10
77.239929
  20
302.54327
  0
VERTEX
  10
74.927032
  20
302.7308
  0
VERTEX
  10
72.551666
  20
302.98087
  0
VERTEX
  10
70.23877
  20
303.35593
  0
VERTEX
  10
67.925934
  20
303.79346
  0
VERTEX
  10
65.675537
  20
304.41858
  0
VERTEX
  10
63.425201
  20
305.1687
  0
VERTEX
  10
61.237335
  20
306.04385
  0
VERTEX
  10
59.112
  20
307.04404
  0
VERTEX
  10
57.049164
  20
308.16916
  0
VERTEX
  10
55.111359
  20
309.4819
  0
VERTEX
  10
53.236053
  20
310.98215
  0
VERTEX
  10
51.548279
  20
312.54492
  0
VERTEX
  10
49.985535
  20
314.29517
  0
VERTEX
  10
48.547791
  20
316.17047
  0
VERTEX
  10
47.235107
  20
318.17081
  0
VERTEX
  10
46.109894
  20
320.23361
  0
VERTEX
  10
45.109741
  20
322.35898
  0
VERTEX
  10
44.234619
  20
324.54681
  0
VERTEX
  10
43.484497
  20
326.79715
  0
VERTEX
  10
42.921906
  20
329.04755
  0
VERTEX
  10
42.421814
  20
331.36038
  0
VERTEX
  10
42.046753
  20
333.67325
  0
VERTEX
  10
41.734192
  20
335.98615
  0
VERTEX
  10
42.046753
  20
338.36154
  0
VERTEX
  10
42.421814
  20
340.67444
  0
VERTEX
  10
42.921906
  20
342.98727
  0
VERTEX
  10
43.484497
  20
345.23767
  0
VERTEX
  10
44.234619
  20
347.48801
  0
VERTEX
  10
45.109741
  20
349.67584
  0
VERTEX
  10
46.109894
  20
351.80118
  0
VERTEX
  10
47.235107
  20
353.86401
  0
VERTEX
  10
48.547791
  20
355.86438
  0
VERTEX
  10
49.985535
  20
357.67712
  0
VERTEX
  10
51.548279
  20
359.42743
  0
VERTEX
  10
53.236053
  20
361.05267
  0
VERTEX
  10
55.111359
  20
362.55289
  0
VERTEX
  10
57.049164
  20
363.8656
  0
VERTEX
  10
59.112
  20
364.99084
  0
VERTEX
  10
61.237335
  20
365.99097
  0
VERTEX
  10
63.425201
  20
366.86612
  0
VERTEX
  10
65.675537
  20
367.61624
  0
VERTEX
  10
67.925934
  20
368.17883
  0
VERTEX
  10
70.23877
  20
368.67889
  0
VERTEX
  10
72.551666
  20
369.05396
  0
VERTEX
  10
74.927032
  20
369.30402
  0
VERTEX
  10
77.239929
  20
369.49152
  0
VERTEX
  10
79.615265
  20
369.55408
  0
VERTEX
  10
81.990662
  20
369.55408
  0
VERTEX
  10
84.303528
  20
369.49152
  0
VERTEX
  10
88.991791
  20
369.11649
  0
VERTEX
  10
93.680054
  20
368.61636
  0
VERTEX
  10
98.305786
  20
367.86624
  0
VERTEX
  10
102.93155
  20
366.99112
  0
VERTEX
  10
107.55728
  20
365.99097
  0
VERTEX
  10
112.12051
  20
364.86578
  0
VERTEX
  10
116.68375
  20
363.6781
  0
VERTEX
  10
121.18448
  20
362.36539
  0
VERTEX
  10
125.6852
  20
360.99014
  0
VERTEX
  10
130.12338
  20
359.4899
  0
VERTEX
  10
134.56161
  20
357.92719
  0
VERTEX
  10
138.93732
  20
356.17691
  0
VERTEX
  10
143.2505
  20
354.23907
  0
VERTEX
  10
147.43867
  20
352.11374
  0
VERTEX
  10
149.439
  20
350.98856
  0
VERTEX
  10
151.50183
  20
349.8009
  0
VERTEX
  10
153.43964
  20
348.48816
  0
VERTEX
  10
155.37744
  20
347.11292
  0
VERTEX
  10
157.19026
  20
345.6752
  0
VERTEX
  10
158.94052
  20
344.11246
  0
VERTEX
  10
160.5658
  20
342.36215
  0
VERTEX
  10
161.2534
  20
341.42456
  0
VERTEX
  10
161.94099
  20
340.42438
  0
VERTEX
  10
162.50359
  20
339.42419
  0
VERTEX
  10
162.94118
  20
338.29904
  0
VERTEX
  10
163.19121
  20
337.17386
  0
VERTEX
  10
163.31622
  20
335.98615
  0
SEQEND
  0
POLYLINE
  62
0
  0
VERTEX
  10
296.01721
  20
560.31494
  0
VERTEX
  10
296.01721
  20
528.30981
  0
SEQEND
  0
POLYLINE
  62
0
  0
VERTEX
  10
343.39978
  20
518.74579
  0
VERTEX
  10
311.51968
  20
518.74579
  0
SEQEND
  0
POLYLINE
  62
0
  0
VERTEX
  10
313.83255
  20
543.99982
  0
VERTEX
  10
341.08694
  20
543.99982
  0
SEQEND
  0
POLYLINE
  62
3
  0
VERTEX
  10
29.786934
  20
518.74579
  0
VERTEX
  10
35.66288
  20
524.62177
  0
SEQEND
  0
POLYLINE
  62
3
  0
VERTEX
  10
35.475342
  20
518.74579
  0
VERTEX
  10
41.351288
  20
524.62177
  0
SEQEND
  0
POLYLINE
  62
3
  0
VERTEX
  10
41.101242
  20
518.74579
  0
VERTEX
  10
46.977203
  20
524.62177
  0
SEQEND
  0
POLYLINE
  62
3
  0
VERTEX
  10
46.789658
  20
518.74579
  0
VERTEX
  10
52.665604
  20
524.62177
  0
SEQEND
  0
POLYLINE
  62
3
  0
VERTEX
  10
52.415573
  20
518.74579
  0
VERTEX
  10
58.291504
  20
524.62177
  0
SEQEND
  0
POLYLINE
  62
3
  0
VERTEX
  10
58.103989
  20
518.74579
  0
VERTEX
  10
63.979919
  20
524.62177
  0
SEQEND
  0
POLYLINE
  62
3
  0
VERTEX
  10
63.729874
  20
518.74579
  0
VERTEX
  10
69.605835
  20
524.62177
  0
SEQEND
  0
POLYLINE
  62
3
  0
VERTEX
  10
69.418289
  20
518.74579
  0
VERTEX
  10
75.294235
  20
524.62177
  0
SEQEND
  0
POLYLINE
  62
3
  0
VERTEX
  10
75.044205
  20
518.74579
  0
VERTEX
  10
80.920151
  20
524.62177
  0
SEQEND
  0
POLYLINE
  62
3
  0
VERTEX
  10
80.732605
  20
518.74579
  0
VERTEX
  10
86.608551
  20
524.62177
  0
SEQEND
  0
POLYLINE
  62
3
  0
VERTEX
  10
86.358521
  20
518.74579
  0
VERTEX
  10
92.234451
  20
524.62177
  0
SEQEND
  0
POLYLINE
  62
3
  0
VERTEX
  10
92.046936
  20
518.74579
  0
VERTEX
  10
97.922867
  20
524.62177
  0
SEQEND
  0
POLYLINE
  62
3
  0
VERTEX
  10
97.672836
  20
518.74579
  0
VERTEX
  10
103.54878
  20
524.62177
  0
SEQEND
  0
POLYLINE
  62
3
  0
VERTEX
  10
103.36124
  20
518.74579
  0
VERTEX
  10
109.23718
  20
524.62177
  0
SEQEND
  0
POLYLINE
  62
3
  0
VERTEX
  10
108.98715
  20
518.74579
  0
VERTEX
  10
114.8631
  20
524.62177
  0
SEQEND
  0
POLYLINE
  62
3
  0
VERTEX
  10
114.67557
  20
518.74579
  0
VERTEX
  10
120.55151
  20
524.62177
  0
SEQEND
  0
POLYLINE
  62
3
  0
VERTEX
  10
120.30147
  20
518.74579
  0
VERTEX
  10
126.17741
  20
524.62177
  0
SEQEND
  0
POLYLINE
  62
3
  0
VERTEX
  10
125.98988
  20
518.74579
  0
VERTEX
  10
131.86581
  20
524.62177
  0
SEQEND
  0
POLYLINE
  62
3
  0
VERTEX
  10
131.6158
  20
518.74579
  0
VERTEX
  10
137.49173
  20
524.62177
  0
SEQEND
  0
POLYLINE
  62
3
  0
VERTEX
  10
137.3042
  20
518.74579
  0
VERTEX
  10
143.18015
  20
524.62177
  0
SEQEND
  0
POLYLINE
  62
3
  0
VERTEX
  10
142.93011
  20
518.74579
  0
VERTEX
  10
148.80605
  20
524.62177
  0
SEQEND
  0
POLYLINE
  62
3
  0
VERTEX
  10
148.61852
  20
518.74579
  0
VERTEX
  10
154.49446
  20
524.62177
  0
SEQEND
  0
POLYLINE
  62
3
  0
VERTEX
  10
154.2444
  20
518.74579
  0
VERTEX
  10
160.12036
  20
524.62177
  0
SEQEND
  0
POLYLINE
  62
3
  0
VERTEX
  10
159.93282
  20
518.74579
  0
VERTEX
  10
165.80879
  20
524.62177
  0
SEQEND
  0
POLYLINE
  62
3
  0
VERTEX
  10
165.62125
  20
518.74579
  0
VERTEX
  10
171.43466
  20
524.62177
  0
SEQEND
  0
POLYLINE
  62
3
  0
VERTEX
  10
171.24716
  20
518.74579
  0
VERTEX
  10
177.12311
  20
524.62177
  0
SEQEND
  0
POLYLINE
  62
3
  0
VERTEX
  10
176.93555
  20
518.74579
  0
VERTEX
  10
182.74899
  20
524.62177
  0
SEQEND
  0
POLYLINE
  62
3
  0
VERTEX
  10
182.56146
  20
518.74579
  0
VERTEX
  10
188.43741
  20
524.62177
  0
SEQEND
  0
POLYLINE
  62
3
  0
VERTEX
  10
188.24988
  20
518.74579
  0
VERTEX
  10
194.12582
  20
524.62177
  0
SEQEND
  0
POLYLINE
  62
3
  0
VERTEX
  10
193.87579
  20
518.74579
  0
VERTEX
  10
199.75171
  20
524.62177
  0
SEQEND
  0
POLYLINE
  62
3
  0
VERTEX
  10
199.56421
  20
518.74579
  0
VERTEX
  10
205.44016
  20
524.62177
  0
SEQEND
  0
POLYLINE
  62
3
  0
VERTEX
  10
205.19009
  20
518.74579
  0
VERTEX
  10
211.06604
  20
524.62177
  0
SEQEND
  0
POLYLINE
  62
3
  0
VERTEX
  10
210.87851
  20
518.74579
  0
VERTEX
  10
216.75446
  20
524.62177
  0
SEQEND
  0
POLYLINE
  62
3
  0
VERTEX
  10
216.50443
  20
518.74579
  0
VERTEX
  10
222.38037
  20
524.62177
  0
SEQEND
  0
POLYLINE
  62
3
  0
VERTEX
  10
222.19284
  20
518.74579
  0
VERTEX
  10
228.06876
  20
524.62177
  0
SEQEND
  0
POLYLINE
  62
3
  0
VERTEX
  10
227.81873
  20
518.74579
  0
VERTEX
  10
233.6947
  20
524.62177
  0
SEQEND
  0
POLYLINE
  62
3
  0
VERTEX
  10
233.50717
  20
518.74579
  0
VERTEX
  10
239.38309
  20
524.62177
  0
SEQEND
  0
POLYLINE
  62
3
  0
VERTEX
  10
239.13306
  20
518.74579
  0
VERTEX
  10
245.009
  20
524.62177
  0
SEQEND
  0
POLYLINE
  62
3
  0
VERTEX
  10
244.82144
  20
518.74579
  0
VERTEX
  10
250.69739
  20
524.62177
  0
SEQEND
  0
POLYLINE
  62
3
  0
VERTEX
  10
250.44736
  20
518.74579
  0
VERTEX
  10
256.32327
  20
524.62177
  0
SEQEND
  0
POLYLINE
  62
3
  0
VERTEX
  10
256.1358
  20
518.74579
  0
VERTEX
  10
262.01175
  20
524.62177
  0
SEQEND
  0
POLYLINE
  62
3
  0
VERTEX
  10
261.76169
  20
518.74579
  0
VERTEX
  10
267.63763
  20
524.62177
  0
SEQEND
  0
POLYLINE
  62
3
  0
VERTEX
  10
267.4501
  20
518.74579
  0
VERTEX
  10
273.32605
  20
524.62177
  0
SEQEND
  0
POLYLINE
  62
3
  0
VERTEX
  10
273.07599
  20
518.74579
  0
VERTEX
  10
278.95193
  20
524.62177
  0
SEQEND
  0
POLYLINE
  62
3
  0
VERTEX
  10
278.7644
  20
518.74579
  0
VERTEX
  10
284.64038
  20
524.62177
  0
SEQEND
  0
POLYLINE
  62
3
  0
VERTEX
  10
284.39032
  20
518.74579
  0
VERTEX
  10
290.26627
  20
524.62177
  0
SEQEND
  0
POLYLINE
  62
3
  0
VERTEX
  10
290.07874
  20
518.74579
  0
VERTEX
  10
295.95465
  20
524.62177
  0
SEQEND
  0
POLYLINE
  62
3
  0
VERTEX
  10
295.70462
  20
518.74579
  0
VERTEX
  10
301.58057
  20
524.62177
  0
SEQEND
  0
POLYLINE
  62
3
  0
VERTEX
  10
301.39304
  20
518.74579
  0
VERTEX
  10
307.26898
  20
524.62177
  0
SEQEND
  0
POLYLINE
  62
3
  0
VERTEX
  10
307.01895
  20
518.74579
  0
VERTEX
  10
311.95724
  20
523.68408
  0
SEQEND
  0
POLYLINE
  62
0
  0
VERTEX
  10
313.83255
  20
543.99982
  0
VERTEX
  10
311.51968
  20
518.74579
  0
SEQEND
  0
POLYLINE
  62
0
  0
VERTEX
  10
297.27997
  20
320.20099
  0
VERTEX
  10
325.97208
  20
412.34076
  0
SEQEND
  0
POLYLINE
  62
0
  0
VERTEX
  10
327.45972
  20
597.07086
  0
VERTEX
  10
73.418945
  20
574.87982
  0
SEQEND
  0
POLYLINE
  62
0
  0
VERTEX
  10
73.4599
  20
574.87769
  0
VERTEX
  10
71.362701
  20
574.43756
  0
VERTEX
  10
69.294495
  20
573.90625
  0
VERTEX
  10
67.257988
  20
573.28534
  0
VERTEX
  10
65.255852
  20
572.57654
  0
VERTEX
  10
63.290764
  20
571.78137
  0
VERTEX
  10
61.365417
  20
570.90149
  0
VERTEX
  10
59.482487
  20
569.93848
  0
VERTEX
  10
57.644665
  20
568.89392
  0
VERTEX
  10
55.854626
  20
567.76941
  0
VERTEX
  10
54.115059
  20
566.56665
  0
VERTEX
  10
52.428638
  20
565.28711
  0
VERTEX
  10
50.798054
  20
563.9325
  0
VERTEX
  10
49.22599
  20
562.50439
  0
VERTEX
  10
47.715122
  20
561.00427
  0
VERTEX
  10
46.268143
  20
559.43396
  0
VERTEX
  10
44.887726
  20
557.79498
  0
SEQEND
  0
POLYLINE
  62
0
  0
VERTEX
  10
44.825485
  20
557.83691
  0
VERTEX
  10
43.780472
  20
556.50549
  0
VERTEX
  10
42.769241
  20
555.15045
  0
VERTEX
  10
41.792137
  20
553.77246
  0
VERTEX
  10
40.849503
  20
552.37213
  0
VERTEX
  10
39.941685
  20
550.95013
  0
VERTEX
  10
39.069038
  20
549.5072
  0
VERTEX
  10
38.231903
  20
548.04395
  0
VERTEX
  10
37.43063
  20
546.56097
  0
VERTEX
  10
36.665565
  20
545.05902
  0
VERTEX
  10
35.937057
  20
543.53876
  0
VERTEX
  10
35.245453
  20
542.00085
  0
VERTEX
  10
34.591099
  20
540.4458
  0
VERTEX
  10
33.974342
  20
538.87439
  0
VERTEX
  10
33.395531
  20
537.28735
  0
VERTEX
  10
32.855019
  20
535.6853
  0
VERTEX
  10
32.353142
  20
534.06891
  0
SEQEND
  0
POLYLINE
  62
0
  0
VERTEX
  10
32.437263
  20
534.00708
  0
VERTEX
  10
31.655584
  20
531.24634
  0
VERTEX
  10
30.945812
  20
528.46667
  0
VERTEX
  10
30.308289
  20
525.66949
  0
VERTEX
  10
29.743355
  20
522.85638
  0
SEQEND
  0
POLYLINE
  62
0
  0
VERTEX
  10
29.717888
  20
522.87415
  0
VERTEX
  10
29.432669
  20
521.11298
  0
VERTEX
  10
29.234755
  20
519.34094
  0
VERTEX
  10
29.124424
  20
517.56128
  0
VERTEX
  10
29.101959
  20
515.77728
  0
SEQEND
  0
POLYLINE
  62
0
  0
VERTEX
  10
29.10257
  20
515.80042
  0
VERTEX
  10
29.135956
  20
514.5318
  0
VERTEX
  10
29.205399
  20
513.26495
  0
VERTEX
  10
29.310841
  20
512.00061
  0
VERTEX
  10
29.452232
  20
510.73947
  0
SEQEND
  0
POLYLINE
  62
0
  0
VERTEX
  10
29.411873
  20
510.68198
  0
VERTEX
  10
30.03698
  20
506.4938
  0
VERTEX
  10
30.787094
  20
502.36813
  0
SEQEND
  0
POLYLINE
  62
0
  0
VERTEX
  10
30.833382
  20
502.39316
  0
VERTEX
  10
31.180202
  20
500.82544
  0
VERTEX
  10
31.575087
  20
499.27194
  0
VERTEX
  10
32.017532
  20
497.73373
  0
VERTEX
  10
32.507023
  20
496.21188
  0
VERTEX
  10
33.043064
  20
494.7074
  0
VERTEX
  10
33.625149
  20
493.22134
  0
VERTEX
  10
34.252773
  20
491.75473
  0
VERTEX
  10
34.925419
  20
490.30865
  0
VERTEX
  10
35.642593
  20
488.88416
  0
VERTEX
  10
36.40379
  20
487.48221
  0
VERTEX
  10
37.2085
  20
486.10394
  0
VERTEX
  10
38.056221
  20
484.75034
  0
VERTEX
  10
38.946445
  20
483.42245
  0
VERTEX
  10
39.878666
  20
482.1214
  0
VERTEX
  10
40.852379
  20
480.84814
  0
VERTEX
  10
41.867081
  20
479.60373
  0
SEQEND
  0
POLYLINE
  62
0
  0
VERTEX
  10
41.827682
  20
479.57266
  0
VERTEX
  10
43.391556
  20
477.78854
  0
VERTEX
  10
45.023621
  20
476.07053
  0
VERTEX
  10
46.721722
  20
474.42047
  0
VERTEX
  10
48.483711
  20
472.84021
  0
VERTEX
  10
50.30743
  20
471.33167
  0
VERTEX
  10
52.19072
  20
469.89658
  0
VERTEX
  10
54.131432
  20
468.53687
  0
VERTEX
  10
56.127411
  20
467.25439
  0
SEQEND
  0
POLYLINE
  62
0
  0
VERTEX
  10
56.179733
  20
467.33835
  0
VERTEX
  10
57.712917
  20
466.43115
  0
VERTEX
  10
59.274368
  20
465.57672
  0
VERTEX
  10
60.862709
  20
464.77557
  0
VERTEX
  10
62.47657
  20
464.02832
  0
VERTEX
  10
64.114578
  20
463.33563
  0
VERTEX
  10
65.77536
  20
462.69806
  0
VERTEX
  10
67.457535
  20
462.11621
  0
VERTEX
  10
69.159729
  20
461.5907
  0
SEQEND
  0
POLYLINE
  62
0
  0
VERTEX
  10
12.4217
  20
408.90271
  0
VERTEX
  10
263.39951
  20
330.76517
  0
SEQEND
  0
POLYLINE
  62
0
  0
VERTEX
  10
13.250961
  20
411.78558
  0
VERTEX
  10
12.821407
  20
410.36359
  0
VERTEX
  10
12.45063
  20
408.92505
  0
SEQEND
  0
POLYLINE
  62
0
  0
VERTEX
  10
15.126427
  20
416.49393
  0
VERTEX
  10
14.616554
  20
415.33185
  0
VERTEX
  10
14.140046
  20
414.15601
  0
VERTEX
  10
13.69718
  20
412.96707
  0
VERTEX
  10
13.288231
  20
411.76578
  0
SEQEND
  0
POLYLINE
  62
0
  0
VERTEX
  10
18.888123
  20
424.08289
  0
VERTEX
  10
17.88575
  20
422.22333
  0
VERTEX
  10
16.919081
  20
420.34518
  0
VERTEX
  10
15.988371
  20
418.44897
  0
VERTEX
  10
15.09388
  20
416.53519
  0
SEQEND
  0
POLYLINE
  62
0
  0
VERTEX
  10
36.180016
  20
442.54761
  0
VERTEX
  10
34.841625
  20
441.66116
  0
VERTEX
  10
33.533783
  20
440.73495
  0
VERTEX
  10
32.257278
  20
439.76987
  0
VERTEX
  10
31.012903
  20
438.76675
  0
VERTEX
  10
29.801453
  20
437.72647
  0
VERTEX
  10
28.623716
  20
436.64984
  0
VERTEX
  10
27.480488
  20
435.53772
  0
VERTEX
  10
26.372561
  20
434.3909
  0
VERTEX
  10
25.300726
  20
433.2103
  0
VERTEX
  10
24.265776
  20
431.99677
  0
VERTEX
  10
23.268501
  20
430.7511
  0
VERTEX
  10
22.3097
  20
429.47418
  0
VERTEX
  10
21.39016
  20
428.16684
  0
VERTEX
  10
20.510675
  20
426.8299
  0
VERTEX
  10
19.672037
  20
425.46423
  0
VERTEX
  10
18.875038
  20
424.07071
  0
SEQEND
  0
POLYLINE
  62
0
  0
VERTEX
  10
53.53788
  20
450.07901
  0
VERTEX
  10
51.250225
  20
449.44763
  0
VERTEX
  10
48.992397
  20
448.72598
  0
VERTEX
  10
46.767017
  20
447.91528
  0
VERTEX
  10
44.576691
  20
447.0166
  0
VERTEX
  10
42.42403
  20
446.03113
  0
VERTEX
  10
40.311642
  20
444.95993
  0
VERTEX
  10
38.242142
  20
443.8042
  0
VERTEX
  10
36.218132
  20
442.56503
  0
SEQEND
  0
POLYLINE
  62
0
  0
VERTEX
  10
67.66613
  20
451.6499
  0
VERTEX
  10
65.884674
  20
451.65411
  0
VERTEX
  10
64.105583
  20
451.59857
  0
VERTEX
  10
62.330353
  20
451.48346
  0
VERTEX
  10
60.560471
  20
451.30896
  0
VERTEX
  10
58.79744
  20
451.0752
  0
VERTEX
  10
57.042744
  20
450.78241
  0
VERTEX
  10
55.297886
  20
450.43073
  0
VERTEX
  10
53.564354
  20
450.02029
  0
SEQEND
  0
POLYLINE
  62
3
  0
VERTEX
  10
621.88202
  20
524.62177
  0
VERTEX
  10
625.50757
  20
520.99615
  0
SEQEND
  0
POLYLINE
  62
3
  0
VERTEX
  10
616.2561
  20
524.62177
  0
VERTEX
  10
622.13202
  20
518.74579
  0
SEQEND
  0
POLYLINE
  62
3
  0
VERTEX
  10
610.56769
  20
524.62177
  0
VERTEX
  10
616.44366
  20
518.74579
  0
SEQEND
  0
POLYLINE
  62
3
  0
VERTEX
  10
604.94177
  20
524.62177
  0
VERTEX
  10
610.81769
  20
518.74579
  0
SEQEND
  0
POLYLINE
  62
3
  0
VERTEX
  10
599.25336
  20
524.62177
  0
VERTEX
  10
605.12933
  20
518.74579
  0
SEQEND
  0
POLYLINE
  62
3
  0
VERTEX
  10
593.6275
  20
524.62177
  0
VERTEX
  10
599.50342
  20
518.74579
  0
SEQEND
  0
POLYLINE
  62
3
  0
VERTEX
  10
587.93909
  20
524.62177
  0
VERTEX
  10
593.815
  20
518.74579
  0
SEQEND
  0
POLYLINE
  62
3
  0
VERTEX
  10
582.31311
  20
524.62177
  0
VERTEX
  10
588.18909
  20
518.74579
  0
SEQEND
  0
POLYLINE
  62
3
  0
VERTEX
  10
576.62476
  20
524.62177
  0
VERTEX
  10
582.50073
  20
518.74579
  0
SEQEND
  0
POLYLINE
  62
3
  0
VERTEX
  10
570.99884
  20
524.62177
  0
VERTEX
  10
576.87476
  20
518.74579
  0
SEQEND
  0
POLYLINE
  62
3
  0
VERTEX
  10
565.31042
  20
524.62177
  0
VERTEX
  10
571.1864
  20
518.74579
  0
SEQEND
  0
POLYLINE
  62
3
  0
VERTEX
  10
559.68451
  20
524.62177
  0
VERTEX
  10
565.56049
  20
518.74579
  0
SEQEND
  0
POLYLINE
  62
3
  0
VERTEX
  10
553.99615
  20
524.62177
  0
VERTEX
  10
559.87201
  20
518.74579
  0
SEQEND
  0
POLYLINE
  62
3
  0
VERTEX
  10
548.37024
  20
524.62177
  0
VERTEX
  10
554.24615
  20
518.74579
  0
SEQEND
  0
POLYLINE
  62
3
  0
VERTEX
  10
542.68176
  20
524.62177
  0
VERTEX
  10
548.55774
  20
518.74579
  0
SEQEND
  0
POLYLINE
  62
3
  0
VERTEX
  10
537.05591
  20
524.62177
  0
VERTEX
  10
542.93182
  20
518.74579
  0
SEQEND
  0
POLYLINE
  62
3
  0
VERTEX
  10
531.36749
  20
524.62177
  0
VERTEX
  10
537.24347
  20
518.74579
  0
SEQEND
  0
POLYLINE
  62
3
  0
VERTEX
  10
525.74158
  20
524.62177
  0
VERTEX
  10
531.61749
  20
518.74579
  0
SEQEND
  0
POLYLINE
  62
3
  0
VERTEX
  10
520.05316
  20
524.62177
  0
VERTEX
  10
525.92908
  20
518.74579
  0
SEQEND
  0
POLYLINE
  62
3
  0
VERTEX
  10
514.42731
  20
524.62177
  0
VERTEX
  10
520.30316
  20
518.74579
  0
SEQEND
  0
POLYLINE
  62
3
  0
VERTEX
  10
508.73883
  20
524.62177
  0
VERTEX
  10
514.61481
  20
518.74579
  0
SEQEND
  0
POLYLINE
  62
3
  0
VERTEX
  10
503.11292
  20
524.62177
  0
VERTEX
  10
508.98889
  20
518.74579
  0
SEQEND
  0
POLYLINE
  62
3
  0
VERTEX
  10
497.4245
  20
524.62177
  0
VERTEX
  10
503.30048
  20
518.74579
  0
SEQEND
  0
POLYLINE
  62
3
  0
VERTEX
  10
491.79865
  20
524.62177
  0
VERTEX
  10
497.67456
  20
518.74579
  0
SEQEND
  0
POLYLINE
  62
3
  0
VERTEX
  10
486.11023
  20
524.62177
  0
VERTEX
  10
491.98615
  20
518.74579
  0
SEQEND
  0
POLYLINE
  62
3
  0
VERTEX
  10
480.48425
  20
524.62177
  0
VERTEX
  10
486.36023
  20
518.74579
  0
SEQEND
  0
POLYLINE
  62
3
  0
VERTEX
  10
474.79596
  20
524.62177
  0
VERTEX
  10
480.67181
  20
518.74579
  0
SEQEND
  0
POLYLINE
  62
3
  0
VERTEX
  10
469.16998
  20
524.62177
  0
VERTEX
  10
475.04596
  20
518.74579
  0
SEQEND
  0
POLYLINE
  62
3
  0
VERTEX
  10
463.48157
  20
524.62177
  0
VERTEX
  10
469.35754
  20
518.74579
  0
SEQEND
  0
POLYLINE
  62
3
  0
VERTEX
  10
457.85565
  20
524.62177
  0
VERTEX
  10
463.66907
  20
518.74579
  0
SEQEND
  0
POLYLINE
  62
3
  0
VERTEX
  10
452.16724
  20
524.62177
  0
VERTEX
  10
458.04321
  20
518.74579
  0
SEQEND
  0
POLYLINE
  62
3
  0
VERTEX
  10
446.47882
  20
524.62177
  0
VERTEX
  10
452.3548
  20
518.74579
  0
SEQEND
  0
POLYLINE
  62
3
  0
VERTEX
  10
440.85291
  20
524.62177
  0
VERTEX
  10
446.72888
  20
518.74579
  0
SEQEND
  0
POLYLINE
  62
3
  0
VERTEX
  10
435.16455
  20
524.62177
  0
VERTEX
  10
441.04047
  20
518.74579
  0
SEQEND
  0
POLYLINE
  62
3
  0
VERTEX
  10
429.53864
  20
524.62177
  0
VERTEX
  10
435.41461
  20
518.74579
  0
SEQEND
  0
POLYLINE
  62
3
  0
VERTEX
  10
423.85022
  20
524.62177
  0
VERTEX
  10
429.7262
  20
518.74579
  0
SEQEND
  0
POLYLINE
  62
3
  0
VERTEX
  10
418.22427
  20
524.62177
  0
VERTEX
  10
424.10022
  20
518.74579
  0
SEQEND
  0
POLYLINE
  62
3
  0
VERTEX
  10
412.53592
  20
524.62177
  0
VERTEX
  10
418.41187
  20
518.74579
  0
SEQEND
  0
POLYLINE
  62
3
  0
VERTEX
  10
406.90997
  20
524.62177
  0
VERTEX
  10
412.78595
  20
518.74579
  0
SEQEND
  0
POLYLINE
  62
3
  0
VERTEX
  10
401.22156
  20
524.62177
  0
VERTEX
  10
407.0975
  20
518.74579
  0
SEQEND
  0
POLYLINE
  62
3
  0
VERTEX
  10
395.5957
  20
524.62177
  0
VERTEX
  10
401.47162
  20
518.74579
  0
SEQEND
  0
POLYLINE
  62
3
  0
VERTEX
  10
389.90729
  20
524.62177
  0
VERTEX
  10
395.78323
  20
518.74579
  0
SEQEND
  0
POLYLINE
  62
3
  0
VERTEX
  10
384.28134
  20
524.62177
  0
VERTEX
  10
390.15729
  20
518.74579
  0
SEQEND
  0
POLYLINE
  62
3
  0
VERTEX
  10
378.59293
  20
524.62177
  0
VERTEX
  10
384.46887
  20
518.74579
  0
SEQEND
  0
POLYLINE
  62
3
  0
VERTEX
  10
372.96707
  20
524.62177
  0
VERTEX
  10
378.84302
  20
518.74579
  0
SEQEND
  0
POLYLINE
  62
3
  0
VERTEX
  10
367.27863
  20
524.62177
  0
VERTEX
  10
373.15457
  20
518.74579
  0
SEQEND
  0
POLYLINE
  62
3
  0
VERTEX
  10
361.65271
  20
524.62177
  0
VERTEX
  10
367.52866
  20
518.74579
  0
SEQEND
  0
POLYLINE
  62
3
  0
VERTEX
  10
355.96429
  20
524.62177
  0
VERTEX
  10
361.84024
  20
518.74579
  0
SEQEND
  0
POLYLINE
  62
3
  0
VERTEX
  10
350.33841
  20
524.62177
  0
VERTEX
  10
356.21436
  20
518.74579
  0
SEQEND
  0
POLYLINE
  62
3
  0
VERTEX
  10
344.64999
  20
524.62177
  0
VERTEX
  10
350.52594
  20
518.74579
  0
SEQEND
  0
POLYLINE
  62
3
  0
VERTEX
  10
343.21225
  20
520.37103
  0
VERTEX
  10
344.90002
  20
518.74579
  0
SEQEND
  0
POLYLINE
  62
0
  0
VERTEX
  10
341.08694
  20
543.99982
  0
VERTEX
  10
343.39978
  20
518.74579
  0
SEQEND
  0
POLYLINE
  62
0
  0
VERTEX
  10
357.63959
  20
320.20099
  0
VERTEX
  10
328.94751
  20
412.34076
  0
SEQEND
  0
POLYLINE
  62
0
  0
VERTEX
  10
327.45972
  20
597.07086
  0
VERTEX
  10
581.50055
  20
574.87982
  0
SEQEND
  0
POLYLINE
  62
0
  0
VERTEX
  10
610.0943
  20
557.79498
  0
VERTEX
  10
608.71387
  20
559.43396
  0
VERTEX
  10
607.26685
  20
561.00427
  0
VERTEX
  10
605.75604
  20
562.50439
  0
VERTEX
  10
604.18396
  20
563.9325
  0
VERTEX
  10
602.55334
  20
565.28711
  0
VERTEX
  10
600.86694
  20
566.56665
  0
VERTEX
  10
599.12732
  20
567.76941
  0
VERTEX
  10
597.33728
  20
568.89392
  0
VERTEX
  10
595.49945
  20
569.93848
  0
VERTEX
  10
593.61652
  20
570.90149
  0
VERTEX
  10
591.69116
  20
571.78137
  0
VERTEX
  10
589.72607
  20
572.57654
  0
VERTEX
  10
587.724
  20
573.28534
  0
VERTEX
  10
585.6875
  20
573.90625
  0
VERTEX
  10
583.61932
  20
574.43756
  0
VERTEX
  10
581.52209
  20
574.87769
  0
SEQEND
  0
POLYLINE
  62
0
  0
VERTEX
  10
622.56628
  20
534.06891
  0
VERTEX
  10
622.06439
  20
535.6853
  0
VERTEX
  10
621.52393
  20
537.28735
  0
VERTEX
  10
620.94513
  20
538.87439
  0
VERTEX
  10
620.32837
  20
540.4458
  0
VERTEX
  10
619.67407
  20
542.00085
  0
VERTEX
  10
618.98242
  20
543.53876
  0
VERTEX
  10
618.25391
  20
545.05902
  0
VERTEX
  10
617.48889
  20
546.56097
  0
VERTEX
  10
616.68762
  20
548.04395
  0
VERTEX
  10
615.85046
  20
549.5072
  0
VERTEX
  10
614.97778
  20
550.95013
  0
VERTEX
  10
614.07001
  20
552.37213
  0
VERTEX
  10
613.12732
  20
553.77246
  0
VERTEX
  10
612.15027
  20
555.15045
  0
VERTEX
  10
611.13904
  20
556.50549
  0
VERTEX
  10
610.09399
  20
557.83691
  0
SEQEND
  0
POLYLINE
  62
0
  0
VERTEX
  10
625.23865
  20
522.85638
  0
VERTEX
  10
624.67371
  20
525.66949
  0
VERTEX
  10
624.03613
  20
528.46667
  0
VERTEX
  10
623.32642
  20
531.24634
  0
VERTEX
  10
622.5448
  20
534.00708
  0
SEQEND
  0
POLYLINE
  62
0
  0
VERTEX
  10
625.88
  20
515.77728
  0
VERTEX
  10
625.85754
  20
517.56128
  0
VERTEX
  10
625.74725
  20
519.34094
  0
VERTEX
  10
625.54932
  20
521.11298
  0
VERTEX
  10
625.2641
  20
522.87415
  0
SEQEND
  0
POLYLINE
  62
0
  0
VERTEX
  10
625.52972
  20
510.73947
  0
VERTEX
  10
625.67114
  20
512.00061
  0
VERTEX
  10
625.77655
  20
513.26495
  0
VERTEX
  10
625.84601
  20
514.5318
  0
VERTEX
  10
625.87939
  20
515.80042
  0
SEQEND
  0
POLYLINE
  62
0
  0
VERTEX
  10
624.13239
  20
502.36813
  0
VERTEX
  10
624.88251
  20
506.4938
  0
VERTEX
  10
625.50757
  20
510.68198
  0
SEQEND
  0
POLYLINE
  62
0
  0
VERTEX
  10
613.11487
  20
479.60373
  0
VERTEX
  10
614.12952
  20
480.84814
  0
VERTEX
  10
615.10327
  20
482.1214
  0
VERTEX
  10
616.03546
  20
483.42245
  0
VERTEX
  10
616.92572
  20
484.75034
  0
VERTEX
  10
617.77344
  20
486.10394
  0
VERTEX
  10
618.57819
  20
487.48221
  0
VERTEX
  10
619.33942
  20
488.88416
  0
VERTEX
  10
620.05658
  20
490.30865
  0
VERTEX
  10
620.72919
  20
491.75473
  0
VERTEX
  10
621.35681
  20
493.22134
  0
VERTEX
  10
621.93896
  20
494.7074
  0
VERTEX
  10
622.47498
  20
496.21188
  0
VERTEX
  10
622.96448
  20
497.73373
  0
VERTEX
  10
623.40698
  20
499.27194
  0
VERTEX
  10
623.80188
  20
500.82544
  0
VERTEX
  10
624.14862
  20
502.39316
  0
SEQEND
  0
POLYLINE
  62
0
  0
VERTEX
  10
598.85455
  20
467.25439
  0
VERTEX
  10
600.85052
  20
468.53687
  0
VERTEX
  10
602.79126
  20
469.89658
  0
VERTEX
  10
604.67456
  20
471.33167
  0
VERTEX
  10
606.49829
  20
472.84021
  0
VERTEX
  10
608.26038
  20
474.42047
  0
VERTEX
  10
609.95844
  20
476.07053
  0
VERTEX
  10
611.59045
  20
477.78854
  0
VERTEX
  10
613.1543
  20
479.57266
  0
SEQEND
  0
POLYLINE
  62
0
  0
VERTEX
  10
585.82227
  20
461.5907
  0
VERTEX
  10
587.52448
  20
462.11621
  0
VERTEX
  10
589.20667
  20
462.69806
  0
VERTEX
  10
590.86743
  20
463.33563
  0
VERTEX
  10
592.50543
  20
464.02832
  0
VERTEX
  10
594.11926
  20
464.77557
  0
VERTEX
  10
595.70764
  20
465.57672
  0
VERTEX
  10
597.26904
  20
466.43115
  0
VERTEX
  10
598.80225
  20
467.33835
  0
SEQEND
  0
POLYLINE
  62
0
  0
VERTEX
  10
642.4353
  20
408.90271
  0
VERTEX
  10
357.63959
  20
320.20099
  0
SEQEND
  0
POLYLINE
  62
0
  0
VERTEX
  10
642.46887
  20
408.92505
  0
VERTEX
  10
642.09814
  20
410.36359
  0
VERTEX
  10
641.66858
  20
411.78558
  0
SEQEND
  0
POLYLINE
  62
0
  0
VERTEX
  10
641.69379
  20
411.76578
  0
VERTEX
  10
641.28479
  20
412.96707
  0
VERTEX
  10
640.84198
  20
414.15601
  0
VERTEX
  10
640.36548
  20
415.33185
  0
VERTEX
  10
639.85565
  20
416.49393
  0
SEQEND
  0
POLYLINE
  62
0
  0
VERTEX
  10
639.88818
  20
416.53519
  0
VERTEX
  10
638.99365
  20
418.44897
  0
VERTEX
  10
638.06299
  20
420.34518
  0
VERTEX
  10
637.09631
  20
422.22333
  0
VERTEX
  10
636.09387
  20
424.08289
  0
SEQEND
  0
POLYLINE
  62
0
  0
VERTEX
  10
636.04449
  20
424.07071
  0
VERTEX
  10
635.24744
  20
425.46423
  0
VERTEX
  10
634.40881
  20
426.8299
  0
VERTEX
  10
633.5293
  20
428.16684
  0
VERTEX
  10
632.60974
  20
429.47418
  0
VERTEX
  10
631.65094
  20
430.7511
  0
VERTEX
  10
630.65369
  20
431.99677
  0
VERTEX
  10
629.61877
  20
433.2103
  0
VERTEX
  10
628.54694
  20
434.3909
  0
VERTEX
  10
627.43909
  20
435.53772
  0
VERTEX
  10
626.29584
  20
436.64984
  0
VERTEX
  10
625.1181
  20
437.72647
  0
VERTEX
  10
623.90662
  20
438.76675
  0
VERTEX
  10
622.66223
  20
439.76987
  0
VERTEX
  10
621.38574
  20
440.73495
  0
VERTEX
  10
620.07788
  20
441.66116
  0
VERTEX
  10
618.7395
  20
442.54761
  0
SEQEND
  0
POLYLINE
  62
0
  0
VERTEX
  10
618.76392
  20
442.56503
  0
VERTEX
  10
616.73987
  20
443.8042
  0
VERTEX
  10
614.67041
  20
444.95993
  0
VERTEX
  10
612.55798
  20
446.03113
  0
VERTEX
  10
610.40533
  20
447.0166
  0
VERTEX
  10
608.21497
  20
447.91528
  0
VERTEX
  10
605.98962
  20
448.72598
  0
VERTEX
  10
603.73181
  20
449.44763
  0
VERTEX
  10
601.44415
  20
450.07901
  0
SEQEND
  0
POLYLINE
  62
0
  0
VERTEX
  10
601.41772
  20
450.02029
  0
VERTEX
  10
599.6842
  20
450.43073
  0
VERTEX
  10
597.93933
  20
450.78241
  0
VERTEX
  10
596.18463
  20
451.0752
  0
VERTEX
  10
594.42163
  20
451.30896
  0
VERTEX
  10
592.65173
  20
451.48346
  0
VERTEX
  10
590.87646
  20
451.59857
  0
VERTEX
  10
589.09741
  20
451.65411
  0
VERTEX
  10
587.31592
  20
451.6499
  0
SEQEND
  0
POLYLINE
  62
1
  0
VERTEX
  10
29.161835
  20
518.74579
  0
VERTEX
  10
36.287971
  20
518.74579
  0
SEQEND
  0
POLYLINE
  62
1
  0
VERTEX
  10
304.39355
  20
518.74579
  0
VERTEX
  10
311.51968
  20
518.74579
  0
SEQEND
  0
POLYLINE
  62
1
  0
VERTEX
  10
618.63147
  20
518.74579
  0
VERTEX
  10
625.75769
  20
518.74579
  0
SEQEND
  0
POLYLINE
  62
3
  0
VERTEX
  10
33.600037
  20
524.62177
  0
VERTEX
  10
37.600685
  20
524.62177
  0
SEQEND
  0
POLYLINE
  62
3
  0
VERTEX
  10
39.600998
  20
524.62177
  0
VERTEX
  10
43.601654
  20
524.62177
  0
SEQEND
  0
POLYLINE
  62
3
  0
VERTEX
  10
45.601974
  20
524.62177
  0
VERTEX
  10
49.602615
  20
524.62177
  0
SEQEND
  0
POLYLINE
  62
3
  0
VERTEX
  10
51.602936
  20
524.62177
  0
VERTEX
  10
55.603577
  20
524.62177
  0
SEQEND
  0
POLYLINE
  62
3
  0
VERTEX
  10
57.603882
  20
524.62177
  0
VERTEX
  10
61.604553
  20
524.62177
  0
SEQEND
  0
POLYLINE
  62
3
  0
VERTEX
  10
63.604874
  20
524.62177
  0
VERTEX
  10
67.605499
  20
524.62177
  0
SEQEND
  0
POLYLINE
  62
3
  0
VERTEX
  10
69.605835
  20
524.62177
  0
VERTEX
  10
73.606461
  20
524.62177
  0
SEQEND
  0
POLYLINE
  62
3
  0
VERTEX
  10
75.606796
  20
524.62177
  0
VERTEX
  10
79.607437
  20
524.62177
  0
SEQEND
  0
POLYLINE
  62
3
  0
VERTEX
  10
81.607758
  20
524.62177
  0
VERTEX
  10
85.608398
  20
524.62177
  0
SEQEND
  0
POLYLINE
  62
3
  0
VERTEX
  10
87.608719
  20
524.62177
  0
VERTEX
  10
91.609375
  20
524.62177
  0
SEQEND
  0
POLYLINE
  62
3
  0
VERTEX
  10
93.609695
  20
524.62177
  0
VERTEX
  10
97.610306
  20
524.62177
  0
SEQEND
  0
POLYLINE
  62
3
  0
VERTEX
  10
99.610657
  20
524.62177
  0
VERTEX
  10
103.61128
  20
524.62177
  0
SEQEND
  0
POLYLINE
  62
3
  0
VERTEX
  10
105.6116
  20
524.62177
  0
VERTEX
  10
109.61224
  20
524.62177
  0
SEQEND
  0
POLYLINE
  62
3
  0
VERTEX
  10
111.61256
  20
524.62177
  0
VERTEX
  10
115.61322
  20
524.62177
  0
SEQEND
  0
POLYLINE
  62
3
  0
VERTEX
  10
117.61354
  20
524.62177
  0
VERTEX
  10
121.61418
  20
524.62177
  0
SEQEND
  0
POLYLINE
  62
3
  0
VERTEX
  10
123.6145
  20
524.62177
  0
VERTEX
  10
127.61514
  20
524.62177
  0
SEQEND
  0
POLYLINE
  62
3
  0
VERTEX
  10
129.61546
  20
524.62177
  0
VERTEX
  10
133.61612
  20
524.62177
  0
SEQEND
  0
POLYLINE
  62
3
  0
VERTEX
  10
135.61644
  20
524.62177
  0
VERTEX
  10
139.61705
  20
524.62177
  0
SEQEND
  0
POLYLINE
  62
3
  0
VERTEX
  10
141.61739
  20
524.62177
  0
VERTEX
  10
145.61803
  20
524.62177
  0
SEQEND
  0
POLYLINE
  62
3
  0
VERTEX
  10
147.61836
  20
524.62177
  0
VERTEX
  10
151.61899
  20
524.62177
  0
SEQEND
  0
POLYLINE
  62
3
  0
VERTEX
  10
153.61932
  20
524.62177
  0
VERTEX
  10
157.61996
  20
524.62177
  0
SEQEND
  0
POLYLINE
  62
3
  0
VERTEX
  10
159.62029
  20
524.62177
  0
VERTEX
  10
163.62093
  20
524.62177
  0
SEQEND
  0
POLYLINE
  62
3
  0
VERTEX
  10
165.62125
  20
524.62177
  0
VERTEX
  10
169.62189
  20
524.62177
  0
SEQEND
  0
POLYLINE
  62
3
  0
VERTEX
  10
171.62219
  20
524.62177
  0
VERTEX
  10
175.62286
  20
524.62177
  0
SEQEND
  0
POLYLINE
  62
3
  0
VERTEX
  10
177.62317
  20
524.62177
  0
VERTEX
  10
181.62381
  20
524.62177
  0
SEQEND
  0
POLYLINE
  62
3
  0
VERTEX
  10
183.62415
  20
524.62177
  0
VERTEX
  10
187.62479
  20
524.62177
  0
SEQEND
  0
POLYLINE
  62
3
  0
VERTEX
  10
189.62512
  20
524.62177
  0
VERTEX
  10
193.62573
  20
524.62177
  0
SEQEND
  0
POLYLINE
  62
3
  0
VERTEX
  10
195.62607
  20
524.62177
  0
VERTEX
  10
199.62671
  20
524.62177
  0
SEQEND
  0
POLYLINE
  62
3
  0
VERTEX
  10
201.62704
  20
524.62177
  0
VERTEX
  10
205.62766
  20
524.62177
  0
SEQEND
  0
POLYLINE
  62
3
  0
VERTEX
  10
207.62799
  20
524.62177
  0
VERTEX
  10
211.62863
  20
524.62177
  0
SEQEND
  0
POLYLINE
  62
3
  0
VERTEX
  10
213.62894
  20
524.62177
  0
VERTEX
  10
217.62961
  20
524.62177
  0
SEQEND
  0
POLYLINE
  62
3
  0
VERTEX
  10
219.62991
  20
524.62177
  0
VERTEX
  10
223.63058
  20
524.62177
  0
SEQEND
  0
POLYLINE
  62
3
  0
VERTEX
  10
225.63089
  20
524.62177
  0
VERTEX
  10
229.6315
  20
524.62177
  0
SEQEND
  0
POLYLINE
  62
3
  0
VERTEX
  10
231.63187
  20
524.62177
  0
VERTEX
  10
235.63248
  20
524.62177
  0
SEQEND
  0
POLYLINE
  62
3
  0
VERTEX
  10
237.63281
  20
524.62177
  0
VERTEX
  10
241.63345
  20
524.62177
  0
SEQEND
  0
POLYLINE
  62
3
  0
VERTEX
  10
243.63376
  20
524.62177
  0
VERTEX
  10
247.6344
  20
524.62177
  0
SEQEND
  0
POLYLINE
  62
3
  0
VERTEX
  10
249.63477
  20
524.62177
  0
VERTEX
  10
253.63538
  20
524.62177
  0
SEQEND
  0
POLYLINE
  62
3
  0
VERTEX
  10
255.63571
  20
524.62177
  0
VERTEX
  10
259.63635
  20
524.62177
  0
SEQEND
  0
POLYLINE
  62
3
  0
VERTEX
  10
261.63663
  20
524.62177
  0
VERTEX
  10
265.63733
  20
524.62177
  0
SEQEND
  0
POLYLINE
  62
3
  0
VERTEX
  10
267.63763
  20
524.62177
  0
VERTEX
  10
271.63828
  20
524.62177
  0
SEQEND
  0
POLYLINE
  62
3
  0
VERTEX
  10
273.63858
  20
524.62177
  0
VERTEX
  10
277.63922
  20
524.62177
  0
SEQEND
  0
POLYLINE
  62
3
  0
VERTEX
  10
279.63956
  20
524.62177
  0
VERTEX
  10
283.6402
  20
524.62177
  0
SEQEND
  0
POLYLINE
  62
3
  0
VERTEX
  10
285.6405
  20
524.62177
  0
VERTEX
  10
289.64114
  20
524.62177
  0
SEQEND
  0
POLYLINE
  62
3
  0
VERTEX
  10
291.64151
  20
524.62177
  0
VERTEX
  10
295.64209
  20
524.62177
  0
SEQEND
  0
POLYLINE
  62
3
  0
VERTEX
  10
297.64246
  20
524.62177
  0
VERTEX
  10
301.6431
  20
524.62177
  0
SEQEND
  0
POLYLINE
  62
3
  0
VERTEX
  10
303.64343
  20
524.62177
  0
VERTEX
  10
307.64407
  20
524.62177
  0
SEQEND
  0
POLYLINE
  62
3
  0
VERTEX
  10
309.64438
  20
524.62177
  0
VERTEX
  10
312.08228
  20
524.62177
  0
SEQEND
  0
POLYLINE
  62
3
  0
VERTEX
  10
342.83719
  20
524.62177
  0
VERTEX
  10
345.27509
  20
524.62177
  0
SEQEND
  0
POLYLINE
  62
3
  0
VERTEX
  10
347.27542
  20
524.62177
  0
VERTEX
  10
351.27606
  20
524.62177
  0
SEQEND
  0
POLYLINE
  62
3
  0
VERTEX
  10
353.27637
  20
524.62177
  0
VERTEX
  10
357.27701
  20
524.62177
  0
SEQEND
  0
POLYLINE
  62
3
  0
VERTEX
  10
359.27737
  20
524.62177
  0
VERTEX
  10
363.27798
  20
524.62177
  0
SEQEND
  0
POLYLINE
  62
3
  0
VERTEX
  10
365.27832
  20
524.62177
  0
VERTEX
  10
369.27893
  20
524.62177
  0
SEQEND
  0
POLYLINE
  62
3
  0
VERTEX
  10
371.2793
  20
524.62177
  0
VERTEX
  10
375.27988
  20
524.62177
  0
SEQEND
  0
POLYLINE
  62
3
  0
VERTEX
  10
377.28024
  20
524.62177
  0
VERTEX
  10
381.28085
  20
524.62177
  0
SEQEND
  0
POLYLINE
  62
3
  0
VERTEX
  10
383.28125
  20
524.62177
  0
VERTEX
  10
387.28183
  20
524.62177
  0
SEQEND
  0
POLYLINE
  62
3
  0
VERTEX
  10
389.28214
  20
524.62177
  0
VERTEX
  10
393.28281
  20
524.62177
  0
SEQEND
  0
POLYLINE
  62
3
  0
VERTEX
  10
395.28311
  20
524.62177
  0
VERTEX
  10
399.28375
  20
524.62177
  0
SEQEND
  0
POLYLINE
  62
3
  0
VERTEX
  10
401.28409
  20
524.62177
  0
VERTEX
  10
405.2847
  20
524.62177
  0
SEQEND
  0
POLYLINE
  62
3
  0
VERTEX
  10
407.28503
  20
524.62177
  0
VERTEX
  10
411.28571
  20
524.62177
  0
SEQEND
  0
POLYLINE
  62
3
  0
VERTEX
  10
413.28598
  20
524.62177
  0
VERTEX
  10
417.28668
  20
524.62177
  0
SEQEND
  0
POLYLINE
  62
3
  0
VERTEX
  10
419.28699
  20
524.62177
  0
VERTEX
  10
423.2876
  20
524.62177
  0
SEQEND
  0
POLYLINE
  62
3
  0
VERTEX
  10
425.28796
  20
524.62177
  0
VERTEX
  10
429.28857
  20
524.62177
  0
SEQEND
  0
POLYLINE
  62
3
  0
VERTEX
  10
431.28888
  20
524.62177
  0
VERTEX
  10
435.28955
  20
524.62177
  0
SEQEND
  0
POLYLINE
  62
3
  0
VERTEX
  10
437.28986
  20
524.62177
  0
VERTEX
  10
441.29053
  20
524.62177
  0
SEQEND
  0
POLYLINE
  62
3
  0
VERTEX
  10
443.29083
  20
524.62177
  0
VERTEX
  10
447.2915
  20
524.62177
  0
SEQEND
  0
POLYLINE
  62
3
  0
VERTEX
  10
449.29181
  20
524.62177
  0
VERTEX
  10
453.29242
  20
524.62177
  0
SEQEND
  0
POLYLINE
  62
3
  0
VERTEX
  10
455.29279
  20
524.62177
  0
VERTEX
  10
459.2934
  20
524.62177
  0
SEQEND
  0
POLYLINE
  62
3
  0
VERTEX
  10
461.2937
  20
524.62177
  0
VERTEX
  10
465.29431
  20
524.62177
  0
SEQEND
  0
POLYLINE
  62
3
  0
VERTEX
  10
467.29474
  20
524.62177
  0
VERTEX
  10
471.29535
  20
524.62177
  0
SEQEND
  0
POLYLINE
  62
3
  0
VERTEX
  10
473.29565
  20
524.62177
  0
VERTEX
  10
477.29626
  20
524.62177
  0
SEQEND
  0
POLYLINE
  62
3
  0
VERTEX
  10
479.29663
  20
524.62177
  0
VERTEX
  10
483.29724
  20
524.62177
  0
SEQEND
  0
POLYLINE
  62
3
  0
VERTEX
  10
485.29755
  20
524.62177
  0
VERTEX
  10
489.29822
  20
524.62177
  0
SEQEND
  0
POLYLINE
  62
3
  0
VERTEX
  10
491.29852
  20
524.62177
  0
VERTEX
  10
495.29919
  20
524.62177
  0
SEQEND
  0
POLYLINE
  62
3
  0
VERTEX
  10
497.2995
  20
524.62177
  0
VERTEX
  10
501.30017
  20
524.62177
  0
SEQEND
  0
POLYLINE
  62
3
  0
VERTEX
  10
503.30048
  20
524.62177
  0
VERTEX
  10
507.30109
  20
524.62177
  0
SEQEND
  0
POLYLINE
  62
3
  0
VERTEX
  10
509.30145
  20
524.62177
  0
VERTEX
  10
513.30206
  20
524.62177
  0
SEQEND
  0
POLYLINE
  62
3
  0
VERTEX
  10
515.30237
  20
524.62177
  0
VERTEX
  10
519.30304
  20
524.62177
  0
SEQEND
  0
POLYLINE
  62
3
  0
VERTEX
  10
521.30334
  20
524.62177
  0
VERTEX
  10
525.30402
  20
524.62177
  0
SEQEND
  0
POLYLINE
  62
3
  0
VERTEX
  10
527.30432
  20
524.62177
  0
VERTEX
  10
531.30499
  20
524.62177
  0
SEQEND
  0
POLYLINE
  62
3
  0
VERTEX
  10
533.3053
  20
524.62177
  0
VERTEX
  10
537.30591
  20
524.62177
  0
SEQEND
  0
POLYLINE
  62
3
  0
VERTEX
  10
539.30627
  20
524.62177
  0
VERTEX
  10
543.30695
  20
524.62177
  0
SEQEND
  0
POLYLINE
  62
3
  0
VERTEX
  10
545.30719
  20
524.62177
  0
VERTEX
  10
549.30786
  20
524.62177
  0
SEQEND
  0
POLYLINE
  62
3
  0
VERTEX
  10
551.30823
  20
524.62177
  0
VERTEX
  10
555.30878
  20
524.62177
  0
SEQEND
  0
POLYLINE
  62
3
  0
VERTEX
  10
557.30914
  20
524.62177
  0
VERTEX
  10
561.30981
  20
524.62177
  0
SEQEND
  0
POLYLINE
  62
3
  0
VERTEX
  10
563.31018
  20
524.62177
  0
VERTEX
  10
567.31073
  20
524.62177
  0
SEQEND
  0
POLYLINE
  62
3
  0
VERTEX
  10
569.3111
  20
524.62177
  0
VERTEX
  10
573.31171
  20
524.62177
  0
SEQEND
  0
POLYLINE
  62
3
  0
VERTEX
  10
575.31207
  20
524.62177
  0
VERTEX
  10
579.31262
  20
524.62177
  0
SEQEND
  0
POLYLINE
  62
3
  0
VERTEX
  10
581.31299
  20
524.62177
  0
VERTEX
  10
585.31366
  20
524.62177
  0
SEQEND
  0
POLYLINE
  62
3
  0
VERTEX
  10
587.3139
  20
524.62177
  0
VERTEX
  10
591.31464
  20
524.62177
  0
SEQEND
  0
POLYLINE
  62
3
  0
VERTEX
  10
593.31488
  20
524.62177
  0
VERTEX
  10
597.31555
  20
524.62177
  0
SEQEND
  0
POLYLINE
  62
3
  0
VERTEX
  10
599.31592
  20
524.62177
  0
VERTEX
  10
603.31653
  20
524.62177
  0
SEQEND
  0
POLYLINE
  62
3
  0
VERTEX
  10
605.31683
  20
524.62177
  0
VERTEX
  10
609.31744
  20
524.62177
  0
SEQEND
  0
POLYLINE
  62
3
  0
VERTEX
  10
611.31781
  20
524.62177
  0
VERTEX
  10
615.31848
  20
524.62177
  0
SEQEND
  0
POLYLINE
  62
3
  0
VERTEX
  10
617.31873
  20
524.62177
  0
VERTEX
  10
621.31946
  20
524.62177
  0
SEQEND
  0
POLYLINE
  62
3
  0
VERTEX
  10
446.10376
  20
452.29758
  0
VERTEX
  10
467.16968
  20
455.4856
  0
SEQEND
  0
POLYLINE
  62
3
  0
VERTEX
  10
466.66956
  20
458.67358
  0
VERTEX
  10
445.6037
  20
455.42307
  0
SEQEND
  0
POLYLINE
  62
3
  0
VERTEX
  10
463.54407
  20
458.17352
  0
VERTEX
  10
463.04401
  20
461.29901
  0
VERTEX
  10
445.10358
  20
458.61111
  0
VERTEX
  10
445.6037
  20
455.42307
  0
VERTEX
  10
446.10376
  20
452.29758
  0
SEQEND
  0
POLYLINE
  62
3
  70
1
  0
VERTEX
  10
452.97986
  20
479.80203
  0
VERTEX
  10
451.79218
  20
479.48947
  0
VERTEX
  10
450.66699
  20
479.11441
  0
VERTEX
  10
449.66681
  20
478.61435
  0
VERTEX
  10
448.79175
  20
477.98923
  0
VERTEX
  10
447.97906
  20
477.23911
  0
VERTEX
  10
447.22894
  20
476.36398
  0
VERTEX
  10
447.04138
  20
476.05142
  0
VERTEX
  10
446.47882
  20
475.05124
  0
VERTEX
  10
446.04132
  20
474.05112
  0
VERTEX
  10
445.79126
  20
472.98843
  0
VERTEX
  10
445.6037
  20
471.86319
  0
VERTEX
  10
445.6037
  20
470.67557
  0
VERTEX
  10
445.72876
  20
469.42538
  0
VERTEX
  10
445.91632
  20
468.36267
  0
VERTEX
  10
446.29132
  20
467.17499
  0
VERTEX
  10
446.79138
  20
466.1123
  0
VERTEX
  10
447.354
  20
465.23718
  0
VERTEX
  10
448.04156
  20
464.362
  0
VERTEX
  10
448.91675
  20
463.67444
  0
VERTEX
  10
449.72937
  20
463.11182
  0
VERTEX
  10
450.66699
  20
462.67426
  0
VERTEX
  10
451.72968
  20
462.36172
  0
VERTEX
  10
452.85486
  20
462.17419
  0
VERTEX
  10
454.0426
  20
462.17419
  0
VERTEX
  10
455.35529
  20
462.29919
  0
VERTEX
  10
455.73035
  20
462.36172
  0
VERTEX
  10
457.04303
  20
462.61176
  0
VERTEX
  10
458.16821
  20
462.98682
  0
VERTEX
  10
459.16833
  20
463.42438
  0
VERTEX
  10
460.04352
  20
463.92447
  0
VERTEX
  10
459.48096
  20
467.42502
  0
VERTEX
  10
458.85583
  20
466.92496
  0
VERTEX
  10
457.85565
  20
466.36237
  0
VERTEX
  10
456.73047
  20
465.98727
  0
VERTEX
  10
455.60529
  20
465.73724
  0
VERTEX
  10
454.85516
  20
465.61224
  0
VERTEX
  10
453.66754
  20
465.67471
  0
VERTEX
  10
452.6048
  20
466.04977
  0
VERTEX
  10
451.66718
  20
466.61243
  0
VERTEX
  10
451.10461
  20
467.11249
  0
VERTEX
  10
450.41699
  20
467.98761
  0
VERTEX
  10
449.97937
  20
469.05026
  0
VERTEX
  10
449.72937
  20
470.30051
  0
VERTEX
  10
449.60437
  20
471.42569
  0
VERTEX
  10
449.66681
  20
472.55087
  0
VERTEX
  10
450.04187
  20
473.61349
  0
VERTEX
  10
450.54199
  20
474.55118
  0
VERTEX
  10
451.04205
  20
475.17624
  0
VERTEX
  10
451.91724
  20
475.86392
  0
VERTEX
  10
452.97986
  20
476.36398
  0
VERTEX
  10
454.1676
  20
476.61398
  0
VERTEX
  10
454.79266
  20
476.67648
  0
VERTEX
  10
455.91785
  20
476.73898
  0
VERTEX
  10
457.10553
  20
476.55148
  0
VERTEX
  10
458.16821
  20
476.17642
  0
VERTEX
  10
457.60565
  20
479.86447
  0
VERTEX
  10
456.98053
  20
479.98947
  0
VERTEX
  10
455.85535
  20
480.05203
  0
VERTEX
  10
454.66766
  20
479.98947
  0
VERTEX
  10
453.35498
  20
479.86447
  0
VERTEX
  10
452.97986
  20
479.80203
  0
SEQEND
  0
POLYLINE
  62
3
  0
VERTEX
  10
466.66956
  20
458.67358
  0
VERTEX
  10
467.16968
  20
455.4856
  0
SEQEND
  0
POLYLINE
  62
3
  0
VERTEX
  10
187.74979
  20
455.4856
  0
VERTEX
  10
208.81567
  20
452.29758
  0
SEQEND
  0
POLYLINE
  62
3
  0
VERTEX
  10
209.31577
  20
455.42307
  0
VERTEX
  10
188.18738
  20
458.67358
  0
SEQEND
  0
POLYLINE
  62
3
  0
VERTEX
  10
206.12775
  20
455.92319
  0
VERTEX
  10
206.62784
  20
459.11121
  0
VERTEX
  10
188.68747
  20
461.79913
  0
VERTEX
  10
188.18738
  20
458.67358
  0
VERTEX
  10
187.74979
  20
455.4856
  0
SEQEND
  0
POLYLINE
  62
3
  70
1
  0
VERTEX
  10
202.50217
  20
479.67697
  0
VERTEX
  10
201.25195
  20
479.80203
  0
VERTEX
  10
200.1268
  20
479.73947
  0
VERTEX
  10
199.00159
  20
479.55197
  0
VERTEX
  10
197.93893
  20
479.23941
  0
VERTEX
  10
196.93878
  20
478.73935
  0
VERTEX
  10
196.0011
  20
478.11423
  0
VERTEX
  10
195.68857
  20
477.86423
  0
VERTEX
  10
194.87595
  20
477.11411
  0
VERTEX
  10
194.18835
  20
476.30142
  0
VERTEX
  10
193.56323
  20
475.3638
  0
VERTEX
  10
193.12567
  20
474.30118
  0
VERTEX
  10
192.75061
  20
473.17593
  0
VERTEX
  10
192.50055
  20
471.92575
  0
VERTEX
  10
192.37555
  20
470.86301
  0
VERTEX
  10
192.37555
  20
469.67538
  0
VERTEX
  10
192.50055
  20
468.4877
  0
VERTEX
  10
192.81311
  20
467.42502
  0
VERTEX
  10
193.25067
  20
466.48743
  0
VERTEX
  10
193.81326
  20
465.48724
  0
VERTEX
  10
194.43835
  20
464.73706
  0
VERTEX
  10
195.18848
  20
464.04947
  0
VERTEX
  10
196.12613
  20
463.42438
  0
VERTEX
  10
197.12631
  20
462.92429
  0
VERTEX
  10
198.314
  20
462.54926
  0
VERTEX
  10
199.56421
  20
462.29919
  0
VERTEX
  10
199.93924
  20
462.23672
  0
VERTEX
  10
201.25195
  20
462.11166
  0
VERTEX
  10
202.43967
  20
462.11166
  0
VERTEX
  10
203.56485
  20
462.23672
  0
VERTEX
  10
204.50247
  20
462.48672
  0
VERTEX
  10
205.06506
  20
465.92477
  0
VERTEX
  10
204.25244
  20
465.67471
  0
VERTEX
  10
203.12729
  20
465.42471
  0
VERTEX
  10
202.00208
  20
465.36218
  0
VERTEX
  10
200.81442
  20
465.48724
  0
VERTEX
  10
200.0643
  20
465.61224
  0
VERTEX
  10
198.93909
  20
466.04977
  0
VERTEX
  10
198.06396
  20
466.6749
  0
VERTEX
  10
197.31384
  20
467.48752
  0
VERTEX
  10
196.93878
  20
468.17514
  0
VERTEX
  10
196.56369
  20
469.17532
  0
VERTEX
  10
196.43869
  20
470.36301
  0
VERTEX
  10
196.56369
  20
471.61319
  0
VERTEX
  10
196.75122
  20
472.73837
  0
VERTEX
  10
197.18881
  20
473.80099
  0
VERTEX
  10
197.8139
  20
474.67618
  0
VERTEX
  10
198.62656
  20
475.42624
  0
VERTEX
  10
199.31418
  20
475.86392
  0
VERTEX
  10
200.3143
  20
476.23898
  0
VERTEX
  10
201.43948
  20
476.42642
  0
VERTEX
  10
202.6897
  20
476.36398
  0
VERTEX
  10
203.31482
  20
476.23898
  0
VERTEX
  10
204.43997
  20
475.86392
  0
VERTEX
  10
205.44016
  20
475.42624
  0
VERTEX
  10
206.37778
  20
474.73868
  0
VERTEX
  10
206.94037
  20
478.42679
  0
VERTEX
  10
206.31528
  20
478.73935
  0
VERTEX
  10
205.31512
  20
479.11441
  0
VERTEX
  10
204.12744
  20
479.42697
  0
VERTEX
  10
202.87723
  20
479.67697
  0
VERTEX
  10
202.50217
  20
479.67697
  0
SEQEND
  0
POLYLINE
  62
3
  0
VERTEX
  10
209.31577
  20
455.42307
  0
VERTEX
  10
208.81567
  20
452.29758
  0
SEQEND
  0
POLYLINE
  62
3
  0
VERTEX
  10
206.64998
  20
407.31061
  0
VERTEX
  10
172.62999
  20
381.48059
  0
SEQEND
  0
POLYLINE
  62
3
  0
VERTEX
  10
200.34999
  20
378.9606
  0
VERTEX
  10
175.14998
  20
411.72061
  0
SEQEND
  0
POLYLINE
  62
3
  0
VERTEX
  10
490.38
  20
419.28058
  0
VERTEX
  10
466.44
  20
383.37061
  0
SEQEND
  0
POLYLINE
  62
3
  0
VERTEX
  10
491.01001
  20
390.3006
  0
VERTEX
  10
461.40002
  20
419.28058
  0
SEQEND
  0
POLYLINE
  62
1
  0
VERTEX
  10
36.288055
  20
518.74585
  0
VERTEX
  10
304.39362
  20
518.74585
  0
SEQEND
  0
POLYLINE
  62
1
  0
VERTEX
  10
343.39987
  20
518.74585
  0
VERTEX
  10
618.63159
  20
518.74585
  0
SEQEND
  0
POLYLINE
  62
1
  0
VERTEX
  10
585.81372
  20
461.4866
  0
VERTEX
  10
327.45978
  20
422.23038
  0
SEQEND
  0
POLYLINE
  62
1
  0
VERTEX
  10
587.31604
  20
451.65033
  0
VERTEX
  10
328.94757
  20
412.34122
  0
SEQEND
  0
POLYLINE
  62
1
  0
VERTEX
  10
69.15979
  20
461.59073
  0
VERTEX
  10
327.45978
  20
422.23038
  0
SEQEND
  0
POLYLINE
  62
1
  0
VERTEX
  10
67.618042
  20
451.66003
  0
VERTEX
  10
325.97205
  20
412.34122
  0
SEQEND
  0
POLYLINE
  62
0
  0
VERTEX
  10
69.159775
  20
461.59073
  0
VERTEX
  10
67.631523
  20
451.71265
  0
SEQEND
  0
POLYLINE
  62
0
  0
VERTEX
  10
327.45978
  20
422.23032
  0
VERTEX
  10
325.97015
  20
412.34338
  0
SEQEND
  0
POLYLINE
  62
0
  0
VERTEX
  10
327.45981
  20
422.23035
  0
VERTEX
  10
328.94592
  20
412.34177
  0
SEQEND
  0
POLYLINE
  62
0
  0
VERTEX
  10
585.81372
  20
461.4866
  0
VERTEX
  10
587.31024
  20
451.59644
  0
SEQEND
  0
POLYLINE
  62
0
  0
VERTEX
  10
273.52615
  20
336.26605
  0
VERTEX
  10
271.02573
  20
328.3898
  0
VERTEX
  10
297.27997
  20
320.20099
  0
SEQEND
  0
POLYLINE
  62
0
  0
VERTEX
  10
273.53143
  20
336.28656
  0
VERTEX
  10
273.63409
  20
336.68634
  0
VERTEX
  10
273.69476
  20
337.08673
  0
VERTEX
  10
273.71475
  20
337.48523
  0
VERTEX
  10
273.6954
  20
337.87918
  0
VERTEX
  10
273.63806
  20
338.26617
  0
VERTEX
  10
273.54404
  20
338.64362
  0
VERTEX
  10
273.41467
  20
339.00894
  0
VERTEX
  10
273.25134
  20
339.35968
  0
VERTEX
  10
273.05533
  20
339.69324
  0
VERTEX
  10
272.82794
  20
340.00711
  0
VERTEX
  10
272.57059
  20
340.29874
  0
VERTEX
  10
272.28452
  20
340.56561
  0
VERTEX
  10
271.9711
  20
340.80518
  0
VERTEX
  10
271.63171
  20
341.01492
  0
VERTEX
  10
271.26764
  20
341.19229
  0
VERTEX
  10
270.88022
  20
341.33469
  0
VERTEX
  10
270.48041
  20
341.43735
  0
VERTEX
  10
270.08002
  20
341.49805
  0
VERTEX
  10
269.68158
  20
341.51804
  0
VERTEX
  10
269.2876
  20
341.49866
  0
VERTEX
  10
268.90063
  20
341.44131
  0
VERTEX
  10
268.52319
  20
341.34729
  0
VERTEX
  10
268.15787
  20
341.21793
  0
VERTEX
  10
267.80713
  20
341.05457
  0
VERTEX
  10
267.47357
  20
340.85855
  0
VERTEX
  10
267.15967
  20
340.63116
  0
VERTEX
  10
266.86801
  20
340.37381
  0
VERTEX
  10
266.60114
  20
340.08774
  0
VERTEX
  10
266.3616
  20
339.77435
  0
VERTEX
  10
266.15189
  20
339.43494
  0
VERTEX
  10
265.97452
  20
339.07086
  0
VERTEX
  10
265.83212
  20
338.68347
  0
SEQEND
  0
POLYLINE
  62
0
  0
VERTEX
  10
263.39951
  20
330.76517
  0
VERTEX
  10
265.83743
  20
338.64145
  0
SEQEND
  0
ENDSEC
  0
EOF
