  0
SECTION
  2
HEADER
  9
$ACADVER
  1
AC1009
  9
$DWGCODEPAGE
  3
ansi_1252
  9
$INSBASE
  10
0.0
  20
0.0
  30
0.0
  9
$EXTMIN
  10
4.04316
  20
110.98
  30
0.0
  9
$EXTMAX
  10
751.288
  20
605.32
  30
0.0
  0
ENDSEC
  0
SECTION
  2
ENTITIES
  0
POLYLINE
  62
0
  70
1
  0
VERTEX
  10
381.8609
  20
319.58447
  0
VERTEX
  10
381.42288
  20
315.21732
  0
VERTEX
  10
381.07581
  20
313.06805
  0
VERTEX
  10
380.55795
  20
310.96457
  0
VERTEX
  10
379.98593
  20
308.8298
  0
VERTEX
  10
379.2973
  20
306.77206
  0
VERTEX
  10
378.55453
  20
304.68307
  0
VERTEX
  10
377.69507
  20
302.67108
  0
VERTEX
  10
376.75021
  20
300.68198
  0
VERTEX
  10
375.80542
  20
298.69287
  0
VERTEX
  10
374.74399
  20
296.78079
  0
VERTEX
  10
373.68253
  20
294.86874
  0
VERTEX
  10
372.50443
  20
293.03369
  0
VERTEX
  10
371.24091
  20
291.22147
  0
VERTEX
  10
369.97739
  20
289.4093
  0
VERTEX
  10
368.6514
  20
287.70538
  0
VERTEX
  10
367.23996
  20
286.02432
  0
VERTEX
  10
365.82855
  20
284.34329
  0
VERTEX
  10
364.30051
  20
282.73926
  0
VERTEX
  10
362.74121
  20
281.18936
  0
VERTEX
  10
359.49759
  20
278.30612
  0
VERTEX
  10
356.13733
  20
275.49991
  0
VERTEX
  10
352.68332
  20
272.85611
  0
VERTEX
  10
349.11264
  20
270.28931
  0
VERTEX
  10
345.47946
  20
267.83078
  0
VERTEX
  10
341.84625
  20
265.37225
  0
VERTEX
  10
338.11929
  20
263.07614
  0
VERTEX
  10
334.35275
  20
260.97369
  0
VERTEX
  10
330.46948
  20
258.94824
  0
VERTEX
  10
326.46121
  20
257.13931
  0
VERTEX
  10
322.44464
  20
255.46994
  0
VERTEX
  10
320.39362
  20
254.6467
  0
VERTEX
  10
318.28012
  20
253.9317
  0
VERTEX
  10
316.18948
  20
253.30215
  0
VERTEX
  10
314.06757
  20
252.72668
  0
VERTEX
  10
311.93729
  20
252.29074
  0
VERTEX
  10
309.79865
  20
251.99435
  0
VERTEX
  10
307.5975
  20
251.80621
  0
VERTEX
  10
305.41089
  20
251.84302
  0
VERTEX
  10
303.2471
  20
251.96515
  0
VERTEX
  10
301.02081
  20
252.19562
  0
VERTEX
  10
298.87155
  20
252.54272
  0
VERTEX
  10
296.71396
  20
253.02933
  0
VERTEX
  10
294.66458
  20
253.57846
  0
VERTEX
  10
292.55267
  20
254.23584
  0
VERTEX
  10
290.46371
  20
254.97861
  0
VERTEX
  10
288.483
  20
255.78391
  0
VERTEX
  10
286.47098
  20
256.64331
  0
VERTEX
  10
284.4819
  20
257.58817
  0
VERTEX
  10
282.51566
  20
258.61835
  0
VERTEX
  10
280.65775
  20
259.71109
  0
VERTEX
  10
276.98758
  20
262.06729
  0
VERTEX
  10
246.3734
  20
240.20572
  0
VERTEX
  10
249.24603
  20
237.60559
  0
VERTEX
  10
252.08737
  20
235.0596
  0
VERTEX
  10
255.11401
  20
232.69275
  0
VERTEX
  10
258.21768
  20
230.44257
  0
VERTEX
  10
261.50662
  20
228.37152
  0
VERTEX
  10
264.84134
  20
226.47125
  0
VERTEX
  10
268.33008
  20
224.80429
  0
VERTEX
  10
271.84171
  20
223.22272
  0
VERTEX
  10
275.47607
  20
221.92856
  0
VERTEX
  10
279.15625
  20
220.80518
  0
VERTEX
  10
282.90503
  20
219.93799
  0
VERTEX
  10
286.75372
  20
219.27283
  0
VERTEX
  10
290.53152
  20
218.85544
  0
VERTEX
  10
294.40921
  20
218.64011
  0
VERTEX
  10
298.30142
  20
218.64969
  0
VERTEX
  10
302.12274
  20
218.90707
  0
VERTEX
  10
305.95859
  20
219.38937
  0
VERTEX
  10
309.75479
  20
220.06531
  0
VERTEX
  10
313.4801
  20
220.98907
  0
VERTEX
  10
317.13455
  20
222.16061
  0
VERTEX
  10
320.75769
  20
223.38629
  0
VERTEX
  10
324.37247
  20
224.7515
  0
VERTEX
  10
331.53955
  20
227.59015
  0
VERTEX
  10
338.58167
  20
230.64539
  0
VERTEX
  10
342.09427
  20
232.31253
  0
VERTEX
  10
345.55283
  20
233.94843
  0
VERTEX
  10
348.94885
  20
235.69257
  0
VERTEX
  10
352.36771
  20
237.52209
  0
VERTEX
  10
355.75534
  20
239.40576
  0
VERTEX
  10
359.05759
  20
241.31232
  0
VERTEX
  10
362.32022
  20
243.41254
  0
VERTEX
  10
365.49744
  20
245.53564
  0
VERTEX
  10
368.66629
  20
247.79828
  0
VERTEX
  10
371.74976
  20
250.08377
  0
VERTEX
  10
374.73947
  20
252.53168
  0
VERTEX
  10
377.69788
  20
255.03372
  0
VERTEX
  10
380.53964
  20
257.61276
  0
VERTEX
  10
383.31897
  20
260.30008
  0
VERTEX
  10
385.9816
  20
263.06445
  0
VERTEX
  10
388.61298
  20
265.8829
  0
VERTEX
  10
391.18185
  20
268.80966
  0
VERTEX
  10
393.57999
  20
271.7822
  0
VERTEX
  10
395.94681
  20
274.80884
  0
VERTEX
  10
398.2511
  20
277.94376
  0
VERTEX
  10
400.38467
  20
281.12442
  0
VERTEX
  10
402.48697
  20
284.35925
  0
VERTEX
  10
404.50388
  20
287.61691
  0
VERTEX
  10
406.45828
  20
290.98288
  0
VERTEX
  10
408.32724
  20
294.3717
  0
VERTEX
  10
410.11087
  20
297.78345
  0
VERTEX
  10
411.80914
  20
301.21808
  0
VERTEX
  10
413.42197
  20
304.67554
  0
VERTEX
  10
415.00351
  20
308.18713
  0
VERTEX
  10
416.46848
  20
311.77579
  0
VERTEX
  10
417.93341
  20
315.36441
  0
VERTEX
  10
419.29007
  20
318.89056
  0
VERTEX
  10
420.63837
  20
322.55621
  0
VERTEX
  10
421.87836
  20
326.1593
  0
VERTEX
  10
423.05585
  20
329.8707
  0
VERTEX
  10
424.12509
  20
333.51962
  0
VERTEX
  10
426.16983
  20
340.97986
  0
VERTEX
  10
424.74557
  20
340.44626
  0
VERTEX
  10
423.2984
  20
339.82727
  0
VERTEX
  10
420.52078
  20
338.51233
  0
VERTEX
  10
414.96548
  20
335.88245
  0
VERTEX
  10
403.91742
  20
330.51434
  0
VERTEX
  10
381.8609
  20
319.58447
  0
SEQEND
  0
POLYLINE
  62
3
  0
VERTEX
  10
356.02686
  20
249.43756
  0
VERTEX
  10
332.64459
  20
253.39682
  0
SEQEND
  0
POLYLINE
  62
3
  0
VERTEX
  10
340.289
  20
238.89636
  0
VERTEX
  10
347.92126
  20
262.21683
  0
SEQEND
  0
POLYLINE
  62
0
  70
1
  0
VERTEX
  10
326.46637
  20
271.35303
  0
VERTEX
  10
322.48798
  20
273.07568
  0
VERTEX
  10
320.41357
  20
273.83545
  0
VERTEX
  10
318.34454
  20
274.5329
  0
VERTEX
  10
316.22964
  20
275.03809
  0
VERTEX
  10
314.11469
  20
275.54333
  0
VERTEX
  10
311.94843
  20
275.91858
  0
VERTEX
  10
309.73074
  20
276.16376
  0
VERTEX
  10
307.58081
  20
276.35217
  0
VERTEX
  10
305.36859
  20
276.5351
  0
VERTEX
  10
303.16724
  20
276.59357
  0
VERTEX
  10
300.97134
  20
276.58966
  0
VERTEX
  10
298.78641
  20
276.46124
  0
VERTEX
  10
296.60141
  20
276.33282
  0
VERTEX
  10
294.35962
  20
276.13672
  0
VERTEX
  10
292.19098
  20
275.82147
  0
VERTEX
  10
290.09003
  20
275.44946
  0
VERTEX
  10
287.92685
  20
275.0719
  0
VERTEX
  10
285.77457
  20
274.56989
  0
VERTEX
  10
283.69543
  20
273.94873
  0
VERTEX
  10
279.54266
  20
272.64417
  0
VERTEX
  10
275.41162
  20
271.09052
  0
VERTEX
  10
271.41608
  20
269.42322
  0
VERTEX
  10
267.36911
  20
267.62598
  0
VERTEX
  10
263.45215
  20
265.77728
  0
VERTEX
  10
259.54611
  20
263.80408
  0
VERTEX
  10
255.65094
  20
261.7063
  0
VERTEX
  10
251.89124
  20
259.49493
  0
VERTEX
  10
248.26695
  20
257.16986
  0
VERTEX
  10
244.65901
  20
254.658
  0
VERTEX
  10
241.19197
  20
251.9702
  0
VERTEX
  10
239.48959
  20
250.62904
  0
VERTEX
  10
237.7981
  20
249.16331
  0
VERTEX
  10
236.17433
  20
247.64076
  0
VERTEX
  10
234.67511
  20
246.12917
  0
VERTEX
  10
233.18678
  20
244.49297
  0
VERTEX
  10
231.83389
  20
242.74309
  0
VERTEX
  10
230.61101
  20
240.94188
  0
VERTEX
  10
229.51808
  20
239.08931
  0
VERTEX
  10
228.49835
  20
237.11763
  0
VERTEX
  10
227.67088
  20
235.10002
  0
VERTEX
  10
226.9057
  20
233.08781
  0
VERTEX
  10
226.21367
  20
230.95659
  0
VERTEX
  10
225.64619
  20
228.83623
  0
VERTEX
  10
225.14098
  20
226.7213
  0
VERTEX
  10
224.76578
  20
224.55501
  0
VERTEX
  10
224.45284
  20
222.39418
  0
VERTEX
  10
224.20215
  20
220.23875
  0
VERTEX
  10
224.0192
  20
218.02654
  0
VERTEX
  10
223.95534
  20
215.88747
  0
VERTEX
  10
223.95921
  20
213.69159
  0
VERTEX
  10
224.21603
  20
209.32166
  0
VERTEX
  10
189.93494
  20
193.77264
  0
VERTEX
  10
189.10442
  20
197.52766
  0
VERTEX
  10
188.33618
  20
201.28815
  0
VERTEX
  10
187.7493
  20
205.12724
  0
VERTEX
  10
187.41696
  20
208.92586
  0
VERTEX
  10
187.20374
  20
212.79764
  0
VERTEX
  10
187.30731
  20
216.63441
  0
VERTEX
  10
187.5354
  20
220.48204
  0
VERTEX
  10
187.95035
  20
224.34602
  0
VERTEX
  10
188.62527
  20
228.10725
  0
VERTEX
  10
189.54929
  20
231.89034
  0
VERTEX
  10
190.67102
  20
235.56517
  0
VERTEX
  10
191.985
  20
239.19405
  0
VERTEX
  10
193.55898
  20
242.7202
  0
VERTEX
  10
195.2684
  20
246.13271
  0
VERTEX
  10
197.23235
  20
249.50475
  0
VERTEX
  10
199.39948
  20
252.70628
  0
VERTEX
  10
201.70203
  20
255.7942
  0
VERTEX
  10
204.20773
  20
258.71161
  0
VERTEX
  10
206.85434
  20
261.45313
  0
VERTEX
  10
209.69865
  20
264.08643
  0
VERTEX
  10
212.61615
  20
266.60065
  0
VERTEX
  10
215.60135
  20
269.05804
  0
VERTEX
  10
221.65039
  20
273.79144
  0
VERTEX
  10
227.83487
  20
278.41119
  0
VERTEX
  10
230.96643
  20
280.63037
  0
VERTEX
  10
234.17113
  20
282.73047
  0
VERTEX
  10
237.37582
  20
284.83057
  0
VERTEX
  10
240.64828
  20
286.87384
  0
VERTEX
  10
243.92616
  20
288.85486
  0
VERTEX
  10
247.27721
  20
290.71674
  0
VERTEX
  10
250.69598
  20
292.52185
  0
VERTEX
  10
254.1825
  20
294.27008
  0
VERTEX
  10
257.6853
  20
295.83154
  0
VERTEX
  10
261.25589
  20
297.33618
  0
VERTEX
  10
264.83734
  20
298.71619
  0
VERTEX
  10
268.48651
  20
300.03949
  0
VERTEX
  10
272.15204
  20
301.1759
  0
VERTEX
  10
275.88525
  20
302.25549
  0
VERTEX
  10
279.62939
  20
303.21057
  0
VERTEX
  10
283.38446
  20
304.04108
  0
VERTEX
  10
287.1449
  20
304.80927
  0
VERTEX
  10
290.98401
  20
305.39618
  0
VERTEX
  10
294.7663
  20
305.91528
  0
VERTEX
  10
298.62173
  20
306.31537
  0
VERTEX
  10
302.4826
  20
306.65314
  0
VERTEX
  10
306.29755
  20
306.79871
  0
VERTEX
  10
310.1748
  20
306.94965
  0
VERTEX
  10
314.0061
  20
306.90833
  0
VERTEX
  10
317.8374
  20
306.86707
  0
VERTEX
  10
321.68506
  20
306.63892
  0
VERTEX
  10
325.53271
  20
306.41083
  0
VERTEX
  10
329.39127
  20
306.05817
  0
VERTEX
  10
333.18753
  20
305.70007
  0
VERTEX
  10
336.99469
  20
305.21741
  0
VERTEX
  10
340.80731
  20
304.67242
  0
VERTEX
  10
344.6254
  20
304.06525
  0
VERTEX
  10
348.44891
  20
303.39575
  0
VERTEX
  10
352.21558
  20
302.65857
  0
VERTEX
  10
355.98773
  20
301.85913
  0
VERTEX
  10
359.7085
  20
300.92969
  0
VERTEX
  10
367.16095
  20
298.94623
  0
VERTEX
  10
365.99176
  20
297.96539
  0
VERTEX
  10
364.69257
  20
297.03601
  0
VERTEX
  10
362.20789
  20
295.31268
  0
VERTEX
  10
357.1817
  20
291.79822
  0
VERTEX
  10
346.9884
  20
284.94531
  0
VERTEX
  10
326.46637
  20
271.35303
  0
SEQEND
  0
POLYLINE
  62
3
  0
VERTEX
  10
269.73138
  20
279.01947
  0
VERTEX
  10
252.59004
  20
287.00592
  0
SEQEND
  0
POLYLINE
  62
3
  0
VERTEX
  10
264.18509
  20
291.81482
  0
VERTEX
  10
257.8382
  20
270.39001
  0
SEQEND
  0
POLYLINE
  62
0
  0
VERTEX
  10
702.21503
  20
186.77844
  0
VERTEX
  10
704.06036
  20
205.29291
  0
SEQEND
  0
POLYLINE
  62
0
  0
VERTEX
  10
676.01184
  20
189.17734
  0
VERTEX
  10
677.85718
  20
207.6918
  0
SEQEND
  0
POLYLINE
  62
0
  0
VERTEX
  10
662.41815
  20
190.28448
  0
VERTEX
  10
664.26355
  20
208.79895
  0
SEQEND
  0
POLYLINE
  62
0
  0
VERTEX
  10
546.47217
  20
214.39639
  0
VERTEX
  10
546.47211
  20
195.75888
  0
SEQEND
  0
POLYLINE
  62
0
  0
VERTEX
  10
567.13934
  20
195.26682
  0
VERTEX
  10
567.32391
  20
213.9043
  0
SEQEND
  0
POLYLINE
  62
0
  0
VERTEX
  10
632.33984
  20
192.37582
  0
VERTEX
  10
633.75464
  20
210.95178
  0
SEQEND
  0
POLYLINE
  62
0
  0
VERTEX
  10
615.91675
  20
211.93597
  0
VERTEX
  10
614.74805
  20
193.35999
  0
SEQEND
  0
POLYLINE
  62
0
  0
VERTEX
  10
582.94745
  20
213.4122
  0
VERTEX
  10
582.02472
  20
194.83621
  0
SEQEND
  0
POLYLINE
  62
0
  0
VERTEX
  10
286.16223
  20
201.35629
  0
VERTEX
  10
307.69073
  20
203.75516
  0
VERTEX
  10
329.28076
  20
205.90802
  0
VERTEX
  10
350.93219
  20
207.87637
  0
VERTEX
  10
372.52216
  20
209.53711
  0
VERTEX
  10
394.17358
  20
211.01334
  0
VERTEX
  10
415.88666
  20
212.24353
  0
VERTEX
  10
437.53815
  20
213.1662
  0
VERTEX
  10
459.2511
  20
213.9043
  0
VERTEX
  10
480.96411
  20
214.39639
  0
VERTEX
  10
502.61554
  20
214.6424
  0
VERTEX
  10
524.32855
  20
214.6424
  0
VERTEX
  10
546.04156
  20
214.39639
  0
VERTEX
  10
567.75452
  20
213.9043
  0
VERTEX
  10
589.40601
  20
213.16617
  0
VERTEX
  10
611.11902
  20
212.2435
  0
VERTEX
  10
632.77045
  20
211.01331
  0
VERTEX
  10
654.422
  20
209.53708
  0
VERTEX
  10
676.07343
  20
207.87634
  0
VERTEX
  10
697.66339
  20
205.90799
  0
VERTEX
  10
719.2533
  20
203.75513
  0
VERTEX
  10
740.84326
  20
201.35626
  0
VERTEX
  10
730.63257
  20
112.28995
  0
VERTEX
  10
709.04266
  20
114.68884
  0
VERTEX
  10
687.32965
  20
116.84171
  0
VERTEX
  10
665.67822
  20
118.7485
  0
VERTEX
  10
643.96527
  20
120.40927
  0
VERTEX
  10
622.25226
  20
121.82397
  0
VERTEX
  10
600.53925
  20
122.93118
  0
VERTEX
  10
578.76477
  20
123.85382
  0
VERTEX
  10
556.9903
  20
124.46893
  0
VERTEX
  10
535.27728
  20
124.89948
  0
VERTEX
  10
513.50275
  20
125.02249
  0
VERTEX
  10
491.72827
  20
124.89948
  0
VERTEX
  10
469.9538
  20
124.46893
  0
VERTEX
  10
448.17926
  20
123.85382
  0
VERTEX
  10
426.46631
  20
122.93121
  0
VERTEX
  10
404.7533
  20
121.82401
  0
VERTEX
  10
382.97876
  20
120.4093
  0
VERTEX
  10
361.32733
  20
118.74854
  0
VERTEX
  10
339.61426
  20
116.84174
  0
VERTEX
  10
317.96283
  20
114.68887
  0
VERTEX
  10
296.31134
  20
112.28998
  0
SEQEND
  0
POLYLINE
  62
1
  0
VERTEX
  10
738.75195
  20
182.84177
  0
VERTEX
  10
732.90851
  20
183.45688
  0
SEQEND
  0
POLYLINE
  62
1
  0
VERTEX
  10
729.03333
  20
183.94897
  0
VERTEX
  10
721.22162
  20
184.81012
  0
SEQEND
  0
POLYLINE
  62
1
  0
VERTEX
  10
717.28497
  20
185.24069
  0
VERTEX
  10
709.47321
  20
186.04031
  0
SEQEND
  0
POLYLINE
  62
1
  0
VERTEX
  10
705.53662
  20
186.40936
  0
VERTEX
  10
697.72479
  20
187.20898
  0
SEQEND
  0
POLYLINE
  62
1
  0
VERTEX
  10
693.78821
  20
187.57806
  0
VERTEX
  10
685.91498
  20
188.25467
  0
SEQEND
  0
POLYLINE
  62
1
  0
VERTEX
  10
682.03979
  20
188.62369
  0
VERTEX
  10
674.78168
  20
189.30032
  0
VERTEX
  10
674.16663
  20
189.30032
  0
SEQEND
  0
POLYLINE
  62
1
  0
VERTEX
  10
670.22992
  20
189.60788
  0
VERTEX
  10
662.41815
  20
190.22296
  0
SEQEND
  0
POLYLINE
  62
1
  0
VERTEX
  10
658.48151
  20
190.53052
  0
VERTEX
  10
653.43774
  20
190.96109
  0
VERTEX
  10
650.60828
  20
191.14563
  0
SEQEND
  0
POLYLINE
  62
1
  0
VERTEX
  10
646.67163
  20
191.39166
  0
VERTEX
  10
638.85986
  20
191.94525
  0
SEQEND
  0
POLYLINE
  62
1
  0
VERTEX
  10
634.92328
  20
192.19131
  0
VERTEX
  10
632.09387
  20
192.37582
  0
VERTEX
  10
627.04993
  20
192.68338
  0
SEQEND
  0
POLYLINE
  62
1
  0
VERTEX
  10
623.1134
  20
192.86792
  0
VERTEX
  10
615.24005
  20
193.35999
  0
SEQEND
  0
POLYLINE
  62
1
  0
VERTEX
  10
611.30347
  20
193.54449
  0
VERTEX
  10
610.68835
  20
193.60602
  0
VERTEX
  10
603.43018
  20
193.91357
  0
SEQEND
  0
POLYLINE
  62
1
  0
VERTEX
  10
599.55505
  20
194.09808
  0
VERTEX
  10
591.68182
  20
194.46716
  0
SEQEND
  0
POLYLINE
  62
1
  0
VERTEX
  10
587.74518
  20
194.59018
  0
VERTEX
  10
579.87195
  20
194.89774
  0
SEQEND
  0
POLYLINE
  62
1
  0
VERTEX
  10
575.93524
  20
195.02075
  0
VERTEX
  10
568.06195
  20
195.26682
  0
SEQEND
  0
POLYLINE
  62
1
  0
VERTEX
  10
564.12537
  20
195.3898
  0
VERTEX
  10
556.25208
  20
195.51282
  0
SEQEND
  0
POLYLINE
  62
1
  0
VERTEX
  10
552.31549
  20
195.63586
  0
VERTEX
  10
546.47211
  20
195.75888
  0
SEQEND
  0
POLYLINE
  62
0
  70
1
  0
VERTEX
  10
613.39478
  20
183.85669
  0
VERTEX
  10
613.4104
  20
183.70175
  0
VERTEX
  10
613.4552
  20
183.55743
  0
VERTEX
  10
613.52612
  20
183.42685
  0
VERTEX
  10
613.62
  20
183.31305
  0
VERTEX
  10
613.73383
  20
183.21916
  0
VERTEX
  10
613.86444
  20
183.14828
  0
VERTEX
  10
614.00873
  20
183.10349
  0
VERTEX
  10
614.1637
  20
183.08786
  0
VERTEX
  10
614.31866
  20
183.10349
  0
VERTEX
  10
614.46295
  20
183.14828
  0
VERTEX
  10
614.59357
  20
183.21916
  0
VERTEX
  10
614.7074
  20
183.31305
  0
VERTEX
  10
614.80127
  20
183.42685
  0
VERTEX
  10
614.87213
  20
183.55743
  0
VERTEX
  10
614.91687
  20
183.70175
  0
VERTEX
  10
614.93256
  20
183.85669
  0
VERTEX
  10
614.91687
  20
184.01166
  0
VERTEX
  10
614.87213
  20
184.15598
  0
VERTEX
  10
614.80127
  20
184.28659
  0
VERTEX
  10
614.7074
  20
184.40038
  0
VERTEX
  10
614.59357
  20
184.49426
  0
VERTEX
  10
614.46295
  20
184.56516
  0
VERTEX
  10
614.31866
  20
184.60995
  0
VERTEX
  10
614.1637
  20
184.62558
  0
VERTEX
  10
614.00873
  20
184.60995
  0
VERTEX
  10
613.86444
  20
184.56516
  0
VERTEX
  10
613.73383
  20
184.49426
  0
VERTEX
  10
613.62
  20
184.40038
  0
VERTEX
  10
613.52612
  20
184.28659
  0
VERTEX
  10
613.4552
  20
184.15598
  0
VERTEX
  10
613.4104
  20
184.01166
  0
VERTEX
  10
613.39478
  20
183.85669
  0
SEQEND
  0
POLYLINE
  62
0
  0
VERTEX
  10
324.79034
  20
186.77847
  0
VERTEX
  10
322.94513
  20
205.29294
  0
SEQEND
  0
POLYLINE
  62
0
  0
VERTEX
  10
350.99365
  20
189.17737
  0
VERTEX
  10
349.14838
  20
207.69183
  0
SEQEND
  0
POLYLINE
  62
0
  0
VERTEX
  10
364.5874
  20
190.28452
  0
VERTEX
  10
362.74207
  20
208.79898
  0
SEQEND
  0
POLYLINE
  62
0
  0
VERTEX
  10
480.47198
  20
214.39639
  0
VERTEX
  10
480.47192
  20
195.75888
  0
SEQEND
  0
POLYLINE
  62
0
  0
VERTEX
  10
459.86609
  20
195.26682
  0
VERTEX
  10
459.62018
  20
213.9043
  0
SEQEND
  0
POLYLINE
  62
0
  0
VERTEX
  10
394.60419
  20
192.37585
  0
VERTEX
  10
393.25098
  20
210.95181
  0
SEQEND
  0
POLYLINE
  62
0
  0
VERTEX
  10
411.02734
  20
211.936
  0
VERTEX
  10
412.19592
  20
193.36002
  0
SEQEND
  0
POLYLINE
  62
0
  0
VERTEX
  10
444.05811
  20
213.4122
  0
VERTEX
  10
444.91925
  20
194.83621
  0
SEQEND
  0
POLYLINE
  62
0
  0
VERTEX
  10
286.16223
  20
201.35629
  0
VERTEX
  10
296.31134
  20
112.28998
  0
SEQEND
  0
POLYLINE
  62
1
  0
VERTEX
  10
480.47192
  20
195.75888
  0
VERTEX
  10
474.69
  20
195.63586
  0
SEQEND
  0
POLYLINE
  62
1
  0
VERTEX
  10
470.75336
  20
195.51282
  0
VERTEX
  10
462.88013
  20
195.3898
  0
SEQEND
  0
POLYLINE
  62
1
  0
VERTEX
  10
458.94348
  20
195.26682
  0
VERTEX
  10
451.07025
  20
195.02075
  0
SEQEND
  0
POLYLINE
  62
1
  0
VERTEX
  10
447.13361
  20
194.89774
  0
VERTEX
  10
439.26038
  20
194.59021
  0
SEQEND
  0
POLYLINE
  62
1
  0
VERTEX
  10
435.32367
  20
194.46719
  0
VERTEX
  10
427.45038
  20
194.09811
  0
SEQEND
  0
POLYLINE
  62
1
  0
VERTEX
  10
423.51385
  20
193.9136
  0
VERTEX
  10
416.25568
  20
193.60605
  0
VERTEX
  10
415.64056
  20
193.54453
  0
SEQEND
  0
POLYLINE
  62
1
  0
VERTEX
  10
411.70386
  20
193.36002
  0
VERTEX
  10
403.83069
  20
192.86795
  0
SEQEND
  0
POLYLINE
  62
1
  0
VERTEX
  10
399.95544
  20
192.68341
  0
VERTEX
  10
394.91168
  20
192.37585
  0
VERTEX
  10
392.08228
  20
192.19135
  0
SEQEND
  0
POLYLINE
  62
1
  0
VERTEX
  10
388.14557
  20
191.94528
  0
VERTEX
  10
380.2724
  20
191.39169
  0
SEQEND
  0
POLYLINE
  62
1
  0
VERTEX
  10
376.33575
  20
191.14566
  0
VERTEX
  10
373.50629
  20
190.96112
  0
VERTEX
  10
368.52393
  20
190.53055
  0
SEQEND
  0
POLYLINE
  62
1
  0
VERTEX
  10
364.5874
  20
190.22299
  0
VERTEX
  10
356.71405
  20
189.60791
  0
SEQEND
  0
POLYLINE
  62
1
  0
VERTEX
  10
352.77753
  20
189.30035
  0
VERTEX
  10
352.16229
  20
189.30035
  0
VERTEX
  10
344.9657
  20
188.62372
  0
SEQEND
  0
POLYLINE
  62
1
  0
VERTEX
  10
341.02905
  20
188.2547
  0
VERTEX
  10
333.21722
  20
187.57809
  0
SEQEND
  0
POLYLINE
  62
1
  0
VERTEX
  10
329.2807
  20
187.20901
  0
VERTEX
  10
321.46887
  20
186.40939
  0
SEQEND
  0
POLYLINE
  62
1
  0
VERTEX
  10
317.53229
  20
186.04034
  0
VERTEX
  10
309.72046
  20
185.24072
  0
SEQEND
  0
POLYLINE
  62
1
  0
VERTEX
  10
305.78387
  20
184.81015
  0
VERTEX
  10
297.97211
  20
183.94901
  0
SEQEND
  0
POLYLINE
  62
1
  0
VERTEX
  10
294.03546
  20
183.45691
  0
VERTEX
  10
288.25354
  20
182.8418
  0
SEQEND
  0
POLYLINE
  62
0
  70
1
  0
VERTEX
  10
412.01141
  20
183.85672
  0
VERTEX
  10
412.02704
  20
183.70178
  0
VERTEX
  10
412.07184
  20
183.55746
  0
VERTEX
  10
412.14276
  20
183.42688
  0
VERTEX
  10
412.23663
  20
183.31308
  0
VERTEX
  10
412.3504
  20
183.21919
  0
VERTEX
  10
412.48102
  20
183.14832
  0
VERTEX
  10
412.62537
  20
183.10352
  0
VERTEX
  10
412.78033
  20
183.08789
  0
VERTEX
  10
412.93527
  20
183.10352
  0
VERTEX
  10
413.07959
  20
183.14832
  0
VERTEX
  10
413.21021
  20
183.21919
  0
VERTEX
  10
413.32401
  20
183.31308
  0
VERTEX
  10
413.41785
  20
183.42688
  0
VERTEX
  10
413.48877
  20
183.55746
  0
VERTEX
  10
413.53357
  20
183.70178
  0
VERTEX
  10
413.54919
  20
183.85672
  0
VERTEX
  10
413.53357
  20
184.01169
  0
VERTEX
  10
413.48877
  20
184.15601
  0
VERTEX
  10
413.41785
  20
184.28662
  0
VERTEX
  10
413.32401
  20
184.40041
  0
VERTEX
  10
413.21021
  20
184.49429
  0
VERTEX
  10
413.07959
  20
184.56519
  0
VERTEX
  10
412.93527
  20
184.60999
  0
VERTEX
  10
412.78033
  20
184.62561
  0
VERTEX
  10
412.62537
  20
184.60999
  0
VERTEX
  10
412.48102
  20
184.56519
  0
VERTEX
  10
412.3504
  20
184.49429
  0
VERTEX
  10
412.23663
  20
184.40041
  0
VERTEX
  10
412.14276
  20
184.28662
  0
VERTEX
  10
412.07184
  20
184.15601
  0
VERTEX
  10
412.02704
  20
184.01169
  0
VERTEX
  10
412.01141
  20
183.85672
  0
SEQEND
  0
POLYLINE
  62
3
  0
VERTEX
  10
497.47327
  20
143.26709
  0
VERTEX
  10
520.41028
  20
181.70215
  0
SEQEND
  0
POLYLINE
  62
3
  0
VERTEX
  10
529.08917
  20
143.88702
  0
VERTEX
  10
496.85333
  20
177.3627
  0
SEQEND
  0
POLYLINE
  62
0
  0
VERTEX
  10
629.06665
  20
254.5502
  0
VERTEX
  10
661.07184
  20
254.5502
  0
SEQEND
  0
POLYLINE
  62
0
  0
VERTEX
  10
525.61255
  20
253.73756
  0
VERTEX
  10
534.42645
  20
250.92462
  0
SEQEND
  0
POLYLINE
  62
1
  0
VERTEX
  10
619.44012
  20
240.2354
  0
VERTEX
  10
729.70782
  20
240.2354
  0
SEQEND
  0
POLYLINE
  62
0
  0
VERTEX
  10
746.58557
  20
211.41827
  0
VERTEX
  10
534.42645
  20
250.92462
  0
SEQEND
  0
POLYLINE
  62
0
  0
VERTEX
  10
732.53882
  20
225.30743
  0
VERTEX
  10
732.6814
  20
224.64886
  0
VERTEX
  10
732.8479
  20
223.99994
  0
VERTEX
  10
733.0379
  20
223.36115
  0
VERTEX
  10
733.25098
  20
222.73294
  0
VERTEX
  10
733.74408
  20
221.51031
  0
VERTEX
  10
734.32336
  20
220.33589
  0
VERTEX
  10
734.98499
  20
219.2135
  0
VERTEX
  10
735.7251
  20
218.14703
  0
VERTEX
  10
736.53973
  20
217.14029
  0
VERTEX
  10
737.42493
  20
216.19717
  0
VERTEX
  10
738.37695
  20
215.32147
  0
VERTEX
  10
739.39185
  20
214.51706
  0
VERTEX
  10
740.46576
  20
213.78778
  0
VERTEX
  10
741.59473
  20
213.13748
  0
VERTEX
  10
742.7749
  20
212.57001
  0
VERTEX
  10
744.00244
  20
212.0892
  0
VERTEX
  10
744.63275
  20
211.88249
  0
VERTEX
  10
745.27344
  20
211.69891
  0
VERTEX
  10
745.92401
  20
211.53891
  0
VERTEX
  10
746.58398
  20
211.403
  0
SEQEND
  0
POLYLINE
  62
0
  0
VERTEX
  10
701.32825
  20
383.94598
  0
VERTEX
  10
732.52075
  20
225.2955
  0
SEQEND
  0
POLYLINE
  62
0
  0
VERTEX
  10
585.18463
  20
411.70044
  0
VERTEX
  10
575.68311
  20
414.70093
  0
VERTEX
  10
525.61255
  20
253.73756
  0
SEQEND
  0
POLYLINE
  62
1
  0
VERTEX
  10
619.4397
  20
240.23553
  0
VERTEX
  10
619.4397
  20
430.82864
  0
SEQEND
  0
POLYLINE
  62
1
  0
VERTEX
  10
534.42609
  20
250.92447
  0
VERTEX
  10
585.1842
  20
411.70026
  0
SEQEND
  0
POLYLINE
  62
1
  0
VERTEX
  10
588.2475
  20
410.76282
  0
VERTEX
  10
537.55188
  20
250.29953
  0
SEQEND
  0
POLYLINE
  62
0
  0
VERTEX
  10
701.32825
  20
383.94598
  0
VERTEX
  10
700.01556
  20
388.25916
  0
VERTEX
  10
698.57782
  20
392.57236
  0
VERTEX
  10
697.8277
  20
394.69769
  0
VERTEX
  10
696.95258
  20
396.7605
  0
VERTEX
  10
696.01489
  20
398.82336
  0
VERTEX
  10
695.01477
  20
400.88617
  0
VERTEX
  10
693.88953
  20
402.82401
  0
VERTEX
  10
692.7019
  20
404.76181
  0
VERTEX
  10
691.38916
  20
406.57458
  0
VERTEX
  10
690.01392
  20
408.38739
  0
VERTEX
  10
688.51367
  20
410.1377
  0
VERTEX
  10
687.01349
  20
411.82544
  0
VERTEX
  10
685.38818
  20
413.45068
  0
VERTEX
  10
683.70044
  20
414.95093
  0
VERTEX
  10
681.9502
  20
416.45117
  0
VERTEX
  10
680.19989
  20
417.88892
  0
VERTEX
  10
678.38708
  20
419.26416
  0
VERTEX
  10
676.51178
  20
420.51434
  0
VERTEX
  10
674.57397
  20
421.76453
  0
VERTEX
  10
672.63617
  20
422.88974
  0
VERTEX
  10
670.69836
  20
424.01489
  0
VERTEX
  10
668.6355
  20
425.01508
  0
VERTEX
  10
666.57269
  20
425.9527
  0
VERTEX
  10
664.50989
  20
426.82785
  0
VERTEX
  10
662.38452
  20
427.64047
  0
VERTEX
  10
660.25916
  20
428.39063
  0
VERTEX
  10
658.07129
  20
429.07822
  0
VERTEX
  10
655.88348
  20
429.70331
  0
VERTEX
  10
653.69562
  20
430.26593
  0
VERTEX
  10
651.44525
  20
430.76599
  0
VERTEX
  10
649.19495
  20
431.20355
  0
VERTEX
  10
646.94452
  20
431.51611
  0
VERTEX
  10
644.69421
  20
431.82867
  0
VERTEX
  10
642.44385
  20
432.0787
  0
VERTEX
  10
640.19348
  20
432.2037
  0
VERTEX
  10
637.94312
  20
432.32874
  0
VERTEX
  10
633.37988
  20
432.32874
  0
VERTEX
  10
628.87915
  20
432.1412
  0
VERTEX
  10
624.37842
  20
431.64111
  0
VERTEX
  10
619.87769
  20
430.95352
  0
VERTEX
  10
617.68982
  20
430.51593
  0
VERTEX
  10
615.50195
  20
430.01587
  0
VERTEX
  10
613.25165
  20
429.45325
  0
VERTEX
  10
611.12628
  20
428.76569
  0
VERTEX
  10
608.93842
  20
428.07806
  0
VERTEX
  10
606.81311
  20
427.32794
  0
VERTEX
  10
604.68774
  20
426.51532
  0
VERTEX
  10
602.62494
  20
425.57764
  0
VERTEX
  10
600.56207
  20
424.64001
  0
VERTEX
  10
598.56177
  20
423.57733
  0
VERTEX
  10
596.62396
  20
422.45215
  0
VERTEX
  10
594.74866
  20
421.20197
  0
VERTEX
  10
592.87335
  20
419.88922
  0
VERTEX
  10
591.12305
  20
418.51401
  0
VERTEX
  10
589.4353
  20
417.01379
  0
VERTEX
  10
587.87256
  20
415.32599
  0
VERTEX
  10
586.49731
  20
413.57574
  0
VERTEX
  10
585.18463
  20
411.70044
  0
SEQEND
  0
POLYLINE
  62
1
  0
VERTEX
  10
585.18457
  20
411.70041
  0
VERTEX
  10
588.24756
  20
410.76279
  0
SEQEND
  0
POLYLINE
  62
0
  0
VERTEX
  10
488.13977
  20
515.3302
  0
VERTEX
  10
495.84094
  20
483.72513
  0
VERTEX
  10
507.29279
  20
486.52557
  0
SEQEND
  0
POLYLINE
  62
0
  0
VERTEX
  10
507.29279
  20
486.52557
  0
VERTEX
  10
499.54156
  20
518.13062
  0
VERTEX
  10
488.13977
  20
515.3302
  0
SEQEND
  0
POLYLINE
  62
3
  0
VERTEX
  10
485.43933
  20
478.57431
  0
VERTEX
  10
497.49121
  20
481.52475
  0
SEQEND
  0
POLYLINE
  62
3
  0
VERTEX
  10
500.59174
  20
482.2749
  0
VERTEX
  10
503.74225
  20
483.02499
  0
SEQEND
  0
POLYLINE
  62
3
  0
VERTEX
  10
506.84277
  20
483.77512
  0
VERTEX
  10
518.89471
  20
486.72562
  0
SEQEND
  0
POLYLINE
  62
3
  0
VERTEX
  10
476.53784
  20
515.13019
  0
VERTEX
  10
479.83844
  20
501.47794
  0
SEQEND
  0
POLYLINE
  62
3
  0
VERTEX
  10
480.58856
  20
498.37747
  0
VERTEX
  10
481.33862
  20
495.27698
  0
SEQEND
  0
POLYLINE
  62
3
  0
VERTEX
  10
482.13879
  20
492.17648
  0
VERTEX
  10
485.43933
  20
478.57431
  0
SEQEND
  0
POLYLINE
  62
3
  0
VERTEX
  10
509.94324
  20
523.28143
  0
VERTEX
  10
497.89136
  20
520.33099
  0
SEQEND
  0
POLYLINE
  62
3
  0
VERTEX
  10
494.79077
  20
519.58087
  0
VERTEX
  10
491.69031
  20
518.83075
  0
SEQEND
  0
POLYLINE
  62
3
  0
VERTEX
  10
488.58984
  20
518.08063
  0
VERTEX
  10
476.53784
  20
515.13019
  0
SEQEND
  0
POLYLINE
  62
3
  0
VERTEX
  10
518.89471
  20
486.72562
  0
VERTEX
  10
515.54413
  20
500.32776
  0
SEQEND
  0
POLYLINE
  62
3
  0
VERTEX
  10
514.79401
  20
503.42831
  0
VERTEX
  10
514.04388
  20
506.57883
  0
SEQEND
  0
POLYLINE
  62
3
  0
VERTEX
  10
513.29376
  20
509.67929
  0
VERTEX
  10
509.94324
  20
523.28143
  0
SEQEND
  0
POLYLINE
  62
0
  0
VERTEX
  10
688.9657
  20
605.31964
  0
VERTEX
  10
4.0431595
  20
605.31964
  0
SEQEND
  0
POLYLINE
  62
0
  0
VERTEX
  10
37.110962
  20
528.05725
  0
VERTEX
  10
25.4841
  20
526.80701
  0
VERTEX
  10
33.110306
  20
437.0426
  0
SEQEND
  0
POLYLINE
  62
0
  0
VERTEX
  10
47.55014
  20
414.4765
  0
VERTEX
  10
18.420471
  20
411.35098
  0
VERTEX
  10
26.671783
  20
300.33319
  0
VERTEX
  10
265.33511
  20
320.5239
  0
VERTEX
  10
396.35614
  20
343.90265
  0
VERTEX
  10
394.48087
  20
386.53452
  0
SEQEND
  0
POLYLINE
  62
0
  0
VERTEX
  10
8.1688232
  20
549.56073
  0
VERTEX
  10
4.0431595
  20
605.31964
  0
SEQEND
  0
POLYLINE
  62
0
  0
VERTEX
  10
33.110306
  20
437.0426
  0
VERTEX
  10
45.549805
  20
438.41785
  0
VERTEX
  10
47.55014
  20
414.4765
  0
SEQEND
  0
POLYLINE
  62
0
  0
VERTEX
  10
8.1688232
  20
549.56073
  0
VERTEX
  10
35.485703
  20
551.87354
  0
VERTEX
  10
37.110962
  20
528.05725
  0
SEQEND
  0
POLYLINE
  62
3
  0
VERTEX
  10
234.08008
  20
605.31964
  0
VERTEX
  10
234.08008
  20
579.62805
  0
SEQEND
  0
POLYLINE
  62
3
  0
VERTEX
  10
234.08008
  20
575.62738
  0
VERTEX
  10
234.08008
  20
571.62671
  0
SEQEND
  0
POLYLINE
  62
3
  0
VERTEX
  10
234.08008
  20
567.6261
  0
VERTEX
  10
234.08008
  20
547.62292
  0
SEQEND
  0
POLYLINE
  62
3
  0
VERTEX
  10
234.08008
  20
543.62225
  0
VERTEX
  10
234.08008
  20
539.62158
  0
SEQEND
  0
POLYLINE
  62
3
  0
VERTEX
  10
234.08008
  20
535.62097
  0
VERTEX
  10
234.08008
  20
515.61774
  0
SEQEND
  0
POLYLINE
  62
3
  0
VERTEX
  10
234.08008
  20
511.61707
  0
VERTEX
  10
234.08008
  20
507.61646
  0
SEQEND
  0
POLYLINE
  62
3
  0
VERTEX
  10
234.08008
  20
503.61578
  0
VERTEX
  10
234.08008
  20
483.61261
  0
SEQEND
  0
POLYLINE
  62
3
  0
VERTEX
  10
234.08008
  20
479.61194
  0
VERTEX
  10
234.08008
  20
475.61133
  0
SEQEND
  0
POLYLINE
  62
3
  0
VERTEX
  10
234.08008
  20
471.61072
  0
VERTEX
  10
234.08008
  20
451.60748
  0
SEQEND
  0
POLYLINE
  62
3
  0
VERTEX
  10
234.08008
  20
447.60684
  0
VERTEX
  10
234.08008
  20
443.60614
  0
SEQEND
  0
POLYLINE
  62
3
  0
VERTEX
  10
234.08008
  20
439.60556
  0
VERTEX
  10
234.08008
  20
419.60233
  0
SEQEND
  0
POLYLINE
  62
3
  0
VERTEX
  10
234.08008
  20
415.60168
  0
VERTEX
  10
234.08008
  20
411.60101
  0
SEQEND
  0
POLYLINE
  62
3
  0
VERTEX
  10
234.08008
  20
407.53787
  0
VERTEX
  10
234.08008
  20
387.53467
  0
SEQEND
  0
POLYLINE
  62
3
  0
VERTEX
  10
234.08008
  20
383.53403
  0
VERTEX
  10
234.08008
  20
379.53339
  0
SEQEND
  0
POLYLINE
  62
3
  0
VERTEX
  10
234.08008
  20
375.53275
  0
VERTEX
  10
234.08008
  20
355.52951
  0
SEQEND
  0
POLYLINE
  62
3
  0
VERTEX
  10
234.08008
  20
351.5289
  0
VERTEX
  10
234.08008
  20
347.52826
  0
SEQEND
  0
POLYLINE
  62
3
  0
VERTEX
  10
234.08008
  20
343.52759
  0
VERTEX
  10
234.08008
  20
317.8985
  0
SEQEND
  0
POLYLINE
  62
3
  0
VERTEX
  10
96.67807
  20
517.84131
  0
VERTEX
  10
181.09807
  20
397.51135
  0
SEQEND
  0
POLYLINE
  62
3
  0
VERTEX
  10
184.87807
  20
519.73132
  0
VERTEX
  10
104.86807
  20
396.88135
  0
SEQEND
  0
POLYLINE
  62
0
  0
VERTEX
  10
693.84143
  20
428.66629
  0
VERTEX
  10
699.65491
  20
432.72943
  0
VERTEX
  10
702.5929
  20
434.79227
  0
VERTEX
  10
705.40576
  20
436.9176
  0
VERTEX
  10
708.21875
  20
439.10544
  0
VERTEX
  10
710.96924
  20
441.3558
  0
VERTEX
  10
713.6571
  20
443.66867
  0
VERTEX
  10
716.28247
  20
446.04407
  0
VERTEX
  10
718.90796
  20
448.48196
  0
VERTEX
  10
721.40833
  20
450.98236
  0
VERTEX
  10
723.84619
  20
453.54526
  0
VERTEX
  10
726.22168
  20
456.17068
  0
VERTEX
  10
728.53455
  20
458.92111
  0
VERTEX
  10
730.78491
  20
461.67154
  0
VERTEX
  10
732.91028
  20
464.54703
  0
VERTEX
  10
734.97302
  20
467.42249
  0
VERTEX
  10
736.91089
  20
470.42297
  0
VERTEX
  10
738.72363
  20
473.48596
  0
VERTEX
  10
740.47388
  20
476.54895
  0
VERTEX
  10
742.09924
  20
479.737
  0
VERTEX
  10
743.59937
  20
482.98749
  0
VERTEX
  10
744.97461
  20
486.23804
  0
VERTEX
  10
746.22485
  20
489.55109
  0
VERTEX
  10
747.34998
  20
492.98914
  0
VERTEX
  10
748.28772
  20
496.36462
  0
VERTEX
  10
749.16284
  20
499.86517
  0
VERTEX
  10
749.85034
  20
503.30328
  0
VERTEX
  10
750.41296
  20
506.86633
  0
VERTEX
  10
750.85059
  20
510.36688
  0
VERTEX
  10
751.10059
  20
513.92999
  0
VERTEX
  10
751.28809
  20
517.49304
  0
VERTEX
  10
751.22571
  20
521.05609
  0
VERTEX
  10
751.10059
  20
524.6192
  0
VERTEX
  10
750.85059
  20
528.11975
  0
VERTEX
  10
750.47546
  20
531.6828
  0
VERTEX
  10
750.03796
  20
535.18335
  0
VERTEX
  10
749.47534
  20
538.74646
  0
VERTEX
  10
748.78772
  20
542.24701
  0
VERTEX
  10
748.0376
  20
545.68506
  0
VERTEX
  10
747.16248
  20
549.12317
  0
VERTEX
  10
746.16235
  20
552.56116
  0
VERTEX
  10
744.97461
  20
555.93671
  0
VERTEX
  10
743.72449
  20
559.24969
  0
VERTEX
  10
742.34924
  20
562.50024
  0
VERTEX
  10
740.7865
  20
565.75085
  0
VERTEX
  10
739.16125
  20
568.87634
  0
VERTEX
  10
737.34839
  20
571.93933
  0
VERTEX
  10
735.41064
  20
574.93976
  0
VERTEX
  10
733.34778
  20
577.87769
  0
VERTEX
  10
731.15991
  20
580.69067
  0
VERTEX
  10
728.84705
  20
583.3786
  0
VERTEX
  10
726.34668
  20
585.94153
  0
VERTEX
  10
723.78381
  20
588.37939
  0
VERTEX
  10
721.03333
  20
590.69232
  0
VERTEX
  10
718.22034
  20
592.81763
  0
VERTEX
  10
715.28235
  20
594.81799
  0
VERTEX
  10
712.21936
  20
596.6933
  0
VERTEX
  10
709.09387
  20
598.44354
  0
VERTEX
  10
705.90576
  20
600.00629
  0
VERTEX
  10
702.65527
  20
601.44403
  0
VERTEX
  10
699.34229
  20
602.69427
  0
VERTEX
  10
695.9043
  20
603.75684
  0
VERTEX
  10
692.46619
  20
604.56952
  0
VERTEX
  10
688.9657
  20
605.31964
  0
SEQEND
  0
POLYLINE
  62
0
  0
VERTEX
  10
693.84143
  20
428.66629
  0
VERTEX
  10
693.34131
  20
445.98157
  0
SEQEND
  0
POLYLINE
  62
0
  0
VERTEX
  10
693.40112
  20
446.01132
  0
VERTEX
  10
693.34192
  20
446.71417
  0
VERTEX
  10
693.20734
  20
447.40005
  0
VERTEX
  10
693.00024
  20
448.06348
  0
VERTEX
  10
692.72333
  20
448.69888
  0
VERTEX
  10
692.37939
  20
449.30066
  0
VERTEX
  10
691.97131
  20
449.86328
  0
VERTEX
  10
691.50183
  20
450.38116
  0
VERTEX
  10
690.97375
  20
450.84869
  0
VERTEX
  10
690.39752
  20
451.25546
  0
VERTEX
  10
689.78583
  20
451.59363
  0
VERTEX
  10
689.14465
  20
451.86179
  0
VERTEX
  10
688.47998
  20
452.05847
  0
VERTEX
  10
687.79803
  20
452.18225
  0
VERTEX
  10
687.10474
  20
452.23169
  0
VERTEX
  10
686.40625
  20
452.20535
  0
VERTEX
  10
685.70862
  20
452.10181
  0
SEQEND
  0
POLYLINE
  62
0
  0
VERTEX
  10
685.65259
  20
452.04501
  0
VERTEX
  10
543.69238
  20
422.91537
  0
SEQEND
  0
POLYLINE
  62
0
  0
VERTEX
  10
541.37952
  20
432.47937
  0
VERTEX
  10
543.69238
  20
422.91537
  0
SEQEND
  0
POLYLINE
  62
0
  0
VERTEX
  10
535.87854
  20
421.35263
  0
VERTEX
  10
533.62817
  20
430.6041
  0
SEQEND
  0
POLYLINE
  62
0
  0
VERTEX
  10
541.45178
  20
432.52979
  0
VERTEX
  10
541.33374
  20
432.92529
  0
VERTEX
  10
541.17938
  20
433.29968
  0
VERTEX
  10
540.99121
  20
433.65149
  0
VERTEX
  10
540.77155
  20
433.97919
  0
VERTEX
  10
540.52295
  20
434.28125
  0
VERTEX
  10
540.24792
  20
434.55627
  0
VERTEX
  10
539.94879
  20
434.80273
  0
VERTEX
  10
539.62805
  20
435.0191
  0
VERTEX
  10
539.28821
  20
435.20398
  0
VERTEX
  10
538.93158
  20
435.35577
  0
VERTEX
  10
538.56079
  20
435.47308
  0
VERTEX
  10
538.1781
  20
435.55438
  0
VERTEX
  10
537.78607
  20
435.59818
  0
VERTEX
  10
537.38715
  20
435.60297
  0
VERTEX
  10
536.98376
  20
435.56732
  0
VERTEX
  10
536.57837
  20
435.48975
  0
VERTEX
  10
536.18286
  20
435.3717
  0
VERTEX
  10
535.80841
  20
435.21735
  0
VERTEX
  10
535.4566
  20
435.02911
  0
VERTEX
  10
535.12891
  20
434.80951
  0
VERTEX
  10
534.82684
  20
434.56097
  0
VERTEX
  10
534.55182
  20
434.28589
  0
VERTEX
  10
534.30536
  20
433.98676
  0
VERTEX
  10
534.08899
  20
433.66602
  0
VERTEX
  10
533.90411
  20
433.32611
  0
VERTEX
  10
533.75232
  20
432.96951
  0
VERTEX
  10
533.63501
  20
432.59863
  0
VERTEX
  10
533.55371
  20
432.216
  0
VERTEX
  10
533.50989
  20
431.82397
  0
VERTEX
  10
533.50513
  20
431.42502
  0
VERTEX
  10
533.54077
  20
431.02161
  0
VERTEX
  10
533.61841
  20
430.61621
  0
SEQEND
  0
POLYLINE
  62
0
  0
VERTEX
  10
535.87854
  20
421.35263
  0
VERTEX
  10
399.85672
  20
393.41061
  0
SEQEND
  0
POLYLINE
  62
0
  0
VERTEX
  10
399.91241
  20
393.46097
  0
VERTEX
  10
399.31778
  20
393.31067
  0
VERTEX
  10
398.7478
  20
393.11035
  0
VERTEX
  10
398.20462
  20
392.86279
  0
VERTEX
  10
397.69031
  20
392.57068
  0
VERTEX
  10
397.20706
  20
392.23676
  0
VERTEX
  10
396.75696
  20
391.86377
  0
VERTEX
  10
396.34216
  20
391.45447
  0
VERTEX
  10
395.96484
  20
391.01154
  0
VERTEX
  10
395.62711
  20
390.53778
  0
VERTEX
  10
395.33105
  20
390.03586
  0
VERTEX
  10
395.07883
  20
389.50854
  0
VERTEX
  10
394.87253
  20
388.95856
  0
VERTEX
  10
394.71432
  20
388.38864
  0
VERTEX
  10
394.60638
  20
387.80151
  0
VERTEX
  10
394.55081
  20
387.19989
  0
VERTEX
  10
394.54971
  20
386.58655
  0
SEQEND
  0
POLYLINE
  62
0
  0
VERTEX
  10
5.7985229
  20
110.98132
  0
VERTEX
  10
160.69836
  20
110.98132
  0
SEQEND
  0
POLYLINE
  62
0
  0
VERTEX
  10
5.7985229
  20
110.98132
  0
VERTEX
  10
5.7985229
  20
271.00705
  0
VERTEX
  10
160.69836
  20
271.00705
  0
VERTEX
  10
160.69836
  20
110.98132
  0
SEQEND
  0
POLYLINE
  62
3
  0
VERTEX
  10
67.18335
  20
200.4332
  0
VERTEX
  10
70.371338
  20
200.4332
  0
SEQEND
  0
POLYLINE
  62
3
  0
VERTEX
  10
96.000549
  20
200.4332
  0
VERTEX
  10
99.188538
  20
200.4332
  0
SEQEND
  0
POLYLINE
  62
3
  0
VERTEX
  10
67.18335
  20
180.42996
  0
VERTEX
  10
99.188538
  20
180.42996
  0
SEQEND
  0
POLYLINE
  62
3
  0
VERTEX
  10
67.18335
  20
200.4332
  0
VERTEX
  10
67.18335
  20
177.24191
  0
VERTEX
  10
99.188538
  20
177.24191
  0
SEQEND
  0
POLYLINE
  62
3
  0
VERTEX
  10
70.371338
  20
180.42996
  0
VERTEX
  10
70.371338
  20
200.4332
  0
SEQEND
  0
POLYLINE
  62
3
  0
VERTEX
  10
96.000549
  20
200.4332
  0
VERTEX
  10
96.000549
  20
180.42996
  0
SEQEND
  0
POLYLINE
  62
3
  0
VERTEX
  10
99.188538
  20
200.4332
  0
VERTEX
  10
99.188538
  20
177.24191
  0
SEQEND
  0
POLYLINE
  62
3
  0
VERTEX
  10
84.498657
  20
198.49539
  0
VERTEX
  10
81.685669
  20
198.49539
  0
VERTEX
  10
75.872253
  20
182.49283
  0
VERTEX
  10
77.99762
  20
182.49283
  0
VERTEX
  10
79.560303
  20
186.93106
  0
VERTEX
  10
86.499023
  20
186.93106
  0
SEQEND
  0
POLYLINE
  62
3
  70
1
  0
VERTEX
  10
80.247986
  20
188.7438
  0
VERTEX
  10
83.060852
  20
196.62009
  0
VERTEX
  10
85.873779
  20
188.7438
  0
VERTEX
  10
80.247986
  20
188.7438
  0
SEQEND
  0
POLYLINE
  62
3
  0
VERTEX
  10
86.499023
  20
186.93106
  0
VERTEX
  10
88.061707
  20
182.49283
  0
VERTEX
  10
90.312073
  20
182.49283
  0
VERTEX
  10
84.498657
  20
198.49539
  0
SEQEND
  0
POLYLINE
  62
1
  0
VERTEX
  10
46.334949
  20
110.98059
  0
VERTEX
  10
46.450871
  20
270.48486
  0
SEQEND
  0
POLYLINE
  62
1
  0
VERTEX
  10
51.332088
  20
110.9802
  0
VERTEX
  10
51.291157
  20
270.8306
  0
SEQEND
  0
POLYLINE
  62
1
  0
VERTEX
  10
46.450871
  20
270.48486
  0
VERTEX
  10
46.449806
  20
271.01315
  0
VERTEX
  10
46.449806
  20
271.01315
  0
SEQEND
  0
POLYLINE
  62
1
  0
VERTEX
  10
115.15668
  20
110.98345
  0
VERTEX
  10
120.15232
  20
110.98071
  0
SEQEND
  0
POLYLINE
  62
1
  0
VERTEX
  10
115.15668
  20
110.98345
  0
VERTEX
  10
115.05654
  20
271.00848
  0
SEQEND
  0
POLYLINE
  62
1
  0
VERTEX
  10
120.15232
  20
110.98071
  0
VERTEX
  10
120.27648
  20
270.98499
  0
SEQEND
  0
ENDSEC
  0
EOF
